Sick Puppies - Howards Tale Chords & Tabs

 

Howards Tale Chords & Tabs

Sick Puppies Chords & Tabs

Version: 3 Type: Tab 0 ratings
1 star 2 stars 3 stars 4 stars 5 stars
comments

Howards Tale Tab

   
Tuning- Drop C 

Verse 1- All bass

Chorus-
d|-------------------------------------------------------------------------|
A|-------------------------------------------------------------------------|
F|-10--101010/999/121212/101010/999/777--7--9------------------------------|
C|-8---x-x-x/-xxx/x-x-x-/x-x-x/-xxx/xxx--5--7-xxxxxxx----------------------|
G|-8---8-8-8/-777/101010/8-8-8/-777/555--5--7-xxxxxxx----------------------|
C|-8-------------------------------------5--7-xxxxxxx----------------------|
Play each bar chord around 12x


Repeat above once more time but after octave chords, play-
d|-------------------------------------------------------------------------|
A|-------------------------------------------------------------------------|
F|-------------------------------------------------------------------------|
C|-55-xx-x-55-xx-x-88-77-11------------------------------------------------|
G|-55-xx-x-55-xx-x-88-77-11------------------------------------------------|
C|-55-xx-x-55-xx-x-88-77-11------------------------------------------------|

Main Riff- 
d|-------------------------------------------------------------------------|
A|-------------------------------------------------------------------------|
F|-------------------------------------------------------------------------|
C|-00-1212-1515-00-1212-1515-1212-1515-00-11-11-1212-00-11-11-1212-11-11---|
G|-00-1212-1515-00-1212-1515-1212-1515-00-11-11-1212-00-11-11-1212-11-11---|
C|-00-1212-1515-00-1212-1515-1212-1515-00-11-11-1212-00-11-11-1212-11-11---|

d|-------------------------------------------------------------------------|
A|-------------------------------------------------------------------------|
F|-------------------------------------------------------------------------|
C|-1212-00-77-88-00-77-88-77-88-00-55-77-00-55-77-55-77--------------------|
G|-1212-00-77-88-00-77-88-77-88-00-55-77-00-55-77-55-77--------------------|
C|-1212-00-77-88-00-77-88-77-88-00-55-77-00-55-77-55-77--------------------|


Verse 2- I'm really unsure on this
d|-------------------------------------------------------------------------|
A|-------------------------------------------------------------------------|
F|-7-9-6------7--------6----7-9-13-----------------------------------------|
C|-x-x-x----7---7----7---7--x-x-x------------------------------------------|
G|-5-7-4--5--------5--------5-7-10-----------------------------------------|
C|-------------------------------------------------------------------------|
          . .   .  . .   .

Repeat chorus

Bridge
d|-------------------------------------------------------------------------|
A|-------------------------------------------------------------------------|
F|-------------------------------------------------------------------------|
C|-0--3--5-8-7-1-00-1212-1515-00-1212-1515-1212-1515-00-11-11-1212-00------|
G|-0--3--5-8-7-1-----------------------------------------------------------|
C|-0--3--5-8-7-1-----------------------------------------------------------|
[ Tab from: http://www.guitartabs.cc/tabs/s/sick_puppies/howards_tale_tab_ver_3.html ]
d|-------------------------------------------------------------------------|
A|-------------------------------------------------------------------------|
F|-------------------------------------------------------------------------|
C|-11h12p11h12p11h12~~~--00-77-88-00-77-88-77-88-00-55-77-00-55-77-55-77---|
G|-----------------------00-77-88-00-77-88-77-88-00-55-77-00-55-77-55-77-5b|
C|-----------------------00-77-88-00-77-88-77-88-00-55-77-00-55-77-55-77---|


Verse 3
d|----|
A|----|
F|----|
C|-00-|
G|-00-|
C|-00-|
   ..
Listen to sing for timing

Verse 3 Riff/Fill
d|-------------------------------------------------------------------------|
A|-------------------------------------------------------------------------|
F|-------------------------------------------------------------------------|
C|-------------------------------------------------------------------------|
G|-------3h5h7-7b----------------------------------------------------------|
C|-3h5h7-------------------------------------------------------------------|

Repeat chorus


Solo
d|-------------------------------------------------------------------------|
A|-------------------------------------------------------------------------|
F|-555-222-555-222-55-22-555-222-555-222-55-22-33333333-22222222-----------|
C|-------------------------------------------------------------------------|
G|-------------------------------------------------------------------------|
C|-------------------------------------------------------------------------|


d|-------------------------------------------------------------------------|
A|-------------------------------------------------------------------------|
F|-------------------------555-222/999999-555-222/1010101010---------------|
C|--------------------------------------------------------------3b---2b---1|
G|-3-00-3-00-3-00-3-00-3-0-----------------------------------00---00----0--|
C|-3-00-3-00-3-00-3-00-3-0-----------------------------------00---00----0--|
                                                             ..   ..    .

Repeat main riff but second time play-
d|-------------------------------------------------------------------------|
A|-------------------------------------------------------------------------|
F|-------------------------------------------------------------------------|
C|---------------------------------------------00-1212-1515-00-1212-1515---|
G|-(5)(5)(5)(5)(5)(5)-(12)(12)(12)(12)(12)(12)-00-1212-1515-00-1212-1515---|
C|---------------------------------------------00-1212-1515-00-1212-1515---|

d|-------------------------------------------------------------------------|
A|-------------------------------------------------------------------------|
F|-------------------------------------------------------------------------|
C|-1212-1515-00-11-11-1212-00-11-11-12/----00-77-88-00-77-8/----00-55------|
G|-1212-1515-00-11-11-1212-00-11-11-12/0-0-00-77-88-00-77-8/0-0-00-55------|
C|-1212-1515-00-11-11-1212-00-11-11-12/0-0-00-77-88-00-77-8/0-0-00-55------|

d|-------------------------------------------------------------------------|
A|-------------------------------------------------------------------------|
F|-------------------------------------------------------------------------|
C|-5-7-8-0-----------------------------------------------------------------|
G|-5-7-8-0-----------------------------------------------------------------|
C|-5-7-8-0-----------------------------------------------------------------|

And your done :)
Comments