Sick Puppies - Healing Now Chords & Tabs

 

Healing Now Chords & Tabs

Sick Puppies Chords & Tabs

Version: 1 Type: Bass Tab 0 ratings
1 star 2 stars 3 stars 4 stars 5 stars
comments

Healing Now Bass Tab

   
-------------------------------------------------------------------------------
                             HEALING NOW - Sick Puppies
-------------------------------------------------------------------------------
Tabbed by: LukeTDub
E-mail:luke.t.wilson@hotmail.com

Tuning: D A D G

Intro: (Whenever hitting a note on the G string by itself you can play an open high D string
and it'll sound fine just fine. Emma throws it in at times that I can't always 
predict...maybe that's just me.)

G|--7---7--11~---7-7h9p7---------7--6~---6-6h7p6-----------------------------|
D|-----9----------9-----9~----7-7---------7-----7----------------------------|
A|---------------------------------------------------------------------------|
D|---------------------------------------------------------------------------|

G|--7---7--9h11~---7-7h9p7--------7--6~---6-6h7p6----------------------------|
D|-----9------------9-----9----7-7---------7-----7---------------------------|
A|---------------------------------------------------------------------------|
D|---------------------------------------------------------------------------|

(Intro plays twice before Shimon starts singing. Same riff for the verse.)

Verse 1: PLAY INTRO BAR 4 TIMES

Pre-chorus:
G|------------------------------------------------------------------|
D|------------------------------------------------------------------|
A|---5-5-5-5---5-5-5-5---5-5-5-5-7-7-7-7---7-7-7-7---7-7-7-7-9-9-9-9|
D|------------------------------------------------------------------|

G|------------------------------------------------|
D|------------------------------------------------|
A|---9-9-9-9---9-9-9-9-4-4-4-4---4-4-4-4---4-4-4-4|
D|------------------------------------------------|
[ Tab from: http://www.guitartabs.cc/tabs/s/sick_puppies/healing_now_btab.html ]
Chorus:
G|--------------------------------------------------------------------------|
D|--------------------------------------------------------------------------|
A|---5~--5-5-5-5~--5-5-5-5-5-7~--7-7-7-7~--7-7-7-7-7------------------------|
D|---------------------------------------------------9~--9-9-9-9~--9-9-9-9-9|

G|--------------------------------|
D|--------------------------------|
A|10~-10-10-10-10~--10-10-10-10-10|    X 4
D|--------------------------------|


Verse 2: SAME AS VERSE 1.

Pre-chorus 2: SAME AS PRE-CHORUS 1.

Chorus 2: SAME AS CHORUS 1.


Bridge: This and the bass riff behind the guitar solo were my only real trouble. I think 
it's an open D
 on the 3rd chord, but if you have another suggestion please comment or email
G|-----------------------------------------------------------------------------|
D|-----------------------------------------------------------------------------|
A|---5~--5-5-5-5~--5-5-5-5-5-7~--7-7-7-7~--7-7-7-7-7---------------------------|
D|---------------------------------------------------0~--0-0-0-0~--0-0-0-0-0-5~|

G|---------------------|
D|---------------------|
A|---------------------| play the whole bridge twice (on the second time, let the last 
note ring 3 times
D|--5-5-5-5~--5-5-5-5-5|     a little more slowly)


NOW, PLAY THE INTRO TWICE MORE...then

Guitar Solo:
G|---------------------------------------------------|
D|---------------------------------------------------|
A|---5~--5-5-5-7~--7-7-7-7-7-------------------------|X3 Then..
D|---------------------------0~--0-0-0-5~--5-5-5-5-5~|

G|-----------|
D|--------7-7|
A|-----------|X 3
D|--0-0-0----|

Chorus 3: PLAY ONE EXTRA BAR AND END ON D(5 on the A string and/or 0 on low D string)


Please rate or comment or give two craps and be pissed off you read this tab. Thanks guys.

| /  slide up
| \  slide down
| h  hammer-on
| p  pull-off
| ~  vibrato
| +  harmonic
| x  Mute note
===============================================================================
Comments