Sick Puppies - Dont Walk Away Chords & Tabs

 

Dont Walk Away Chords & Tabs

Sick Puppies Chords & Tabs

Version: 1 Type: Tab 0 ratings
1 star 2 stars 3 stars 4 stars 5 stars
comments

Dont Walk Away Tab

   
Don't Walk Away
Sick Puppies
Tri-Polar
DADGBE

This tab is written for one guitar besides the solo.

Legend:     ( )- ghost note     p-pull-off     h-hammer-on     ~ -hold note

            . -palm mute    b-bend     r-return from bend    x-scratch note  

Intro/Verse 1                     Play this all x3
|------------------------------------------------|
|--------------3-3---3-33----------------------3-|
|--------------2-2---2-22------------3-3---3--0--|
|-55-2-(2)-2-2-----2-----------------------------|
|-55-2-(2)-2-2-----2-------3-(3)-3-3-----3-------|
|----2-(2)-2-2-----2-----------------------------|

|------------------------------------------------|
|-----------3-3---3-33------------------1p0------|
|-----------2-2---2-22-----------3-3--------2h4--|
|-2-(2)-2-2--------------------------------------|
|-2-(2)-2-2------------3-(3)-3-3-----3-----------|
|-2-(2)-2-2--------------------------------------|

Pre-Chorus 1
  D           Em          D
|-2~~~~-------0~~~~-------2~~~~-----------------------|
|-3~~~~-------0~~~~-------3~~~~-----------------------|
|-2~~~~-------0~~~~-------2~~~~-------5-5-5-5-5-5-5-5-|
|-0~~~~-------2~~~~-------0~~~~-------5-5-5-5-5-5-5-5-|
|-------------2~~~~-------------------3-3-3-3-3-3-3-3-|
|-----------------------------------------------------|
                                      . . . . . . . .
Chorus 1                                       x3
|-----------------------------------------------|
|-----------------------------------------------|
|------------5----5--5--------------------------|
|-2----2--2--5----5--5--5--5--5--5--4--4--4--4--|
|-2----2--2--3----3--3--5--5--5--5--4--4--4--4--|
|-2----2--2-------------5--5--5--5--4--4--4--4--|

|-------------------------------|
|-------------------------------|
|-2--2--2--2--2--2--2--2--5~~~--|
|-2--2--2--2--2--2--2--2--5~~~--|
|-0--0--0--0--0--0--0--0--3~~~--|
|-------------------------------|
  .  .  .  .  .  .  .  .
Pre-Verse                                    x2
|---------------------------------------------|
|-----------3-3---3-33------------------------|
|-----------2-2---2-22-------------3-3---3-33-|
|-2-(2)-2-2-----2-------2-(2)-2-2-------------|
|-2-(2)-2-2-----2-------2-(2)-2-2------3------|
|-2-(2)-2-2-----2-------2-(2)-2-2-------------|

Verse 2                       Play this part x2
|---------------------------------------------|
|-----------3-3---3-33----------------------3-|
|-----------2-2---2-22------------3-3---3--0--|
|-2-(2)-2-2-----------------------------------|
|-2-(2)-2-2-------------3-(3)-3-3-----3-------|
|-2-(2)-2-2-----------------------------------|

|-----------------------------------------------|
|-----------3-3---3-33------------------1p0-----|
|-----------2-2---2-22------------3-3-------2h4-|
|-2-(2)-2-2-------------------------------------|
|-2-(2)-2-2-------------3-(3)-3-3-----3---------|
|-2-(2)-2-2-------------------------------------|

Pre-Chorus 2
  D           Em          D
|-2~~~~-------0~~~~-------2~~~~-----------------------|
|-3~~~~-------0~~~~-------3~~~~-----------------------|
|-2~~~~-------0~~~~-------2~~~~-------5-5-5-5-5-5-5-5-|
|-0~~~~-------2~~~~-------0~~~~-------5-5-5-5-5-5-5-5-|
|-------------2~~~~-------------------3-3-3-3-3-3-3-3-|
|-----------------------------------------------------|
                                      . . . . .
Chorus 2
|-----------------------------------------------|
|-----------------------------------------------|
|------------5----5--5--------------------------|
|-2----2--2--5----5--5--5--5--5--5--4--4--4--4--|
|-2----2--2--3----3--3--5--5--5--5--4--4--4--4--|
|-2----2--2-------------5--5--5--5--4--4--4--4--|
[ Tab from: http://www.guitartabs.cc/tabs/s/sick_puppies/dont_walk_away_tab.html ]
|-------------------------------------------------|
|-------------------------------------------------|
|-2--2--2--2--2--2--2--2--5--5--5--5--5--5--5--5--|
|-2--2--2--2--2--2--2--2--5--5--5--5--5--5--5--5--|
|-0--0--0--0--0--0--0--0--3--3--3--3--3--3--3--3--|
|-------------------------------------------------|
  .  .  .  .  .  .  .  .  .  .  .  .  .  . 
Bridge
|-----------------------------------------------------------------|
|-----------------------------------------------------------------|
|-----------------2-2-2-2-2-2-2-2-7-7-7-7-7-7-7-7-----------------|
|-0-0-0-0-0-0-0-0-2-2-2-2-2-2-2-2-7-7-7-7-7-7-7-7-5-5-5-5-4-4-4-4-|
|-0-0-0-0-0-0-0-0-0-0-0-0-0-0-0-0-5-5-5-5-5-5-5-5-5-5-5-5-4-4-4-4-|
|-0-0-0-0-0-0-0-0---------------------------------5-5-5-5-4-4-4-4-|

|-----------------------|
|-----------------------|
|-----------------5~~~~-|
|-7-7-7-7-7-7-7-7-5~~~~-|
|-7-7-7-7-7-7-7-7-3~~~~-|
|-7-7-7-7-7-7-7-7-------|
  . . . . . . . . 
Solo Guitar 2 plays the chorus x3 during the solo.
|--------------------------------------------------------------|
|--------------------------------------------------------------|
|-9~--11h12-11h12p11--9~--11h12-11h12p11----11h12-11h12p11-----|
|----------------------------------------12~---------------12~-|
|--------------------------------------------------------------|
|--------------------------------------------------------------|

|-------------------------------------------------------------|
|-------------------------------------------------------------|
|-11h12-11h12p11--9~--11h12-11h12p11--9~--11h12-11h12p11------|
|--------------------------------------------------------12~--|
|-------------------------------------------------------------|
|-------------------------------------------------------------|

|----------------------------------|---------------------2-3-3-5-5b6r5p3-|
|----------------------------------|-----------------3-5-----------------|
|-11h12-11h12p11----11h12-11h12p11-|-------------------------------------|
|----------------12~---------------|-------------2-4---------------------|
|----------------------------------|-------2-3-5-------------------------|
|----------------------------------|-2-4-5-------------------------------|

|-------------------------------12-14-14b15r14-12~~~~-|
|-------------------------12-15-----------------------|
|-------------12----12-14-----------------------------|
|-------12-14----14-----------------------------------|
|-17p14-----------------------------------------------|
|-----------------------------------------------------|

Pre-Chorus
|----------------------------------------------------------|
|-----------3-3---3-33-------------------------------------|
|-----------2-2---2-22-------------------------------------|
|-2-(2)-2-2-----2------5-5-5-5x5x5-5-5x5x5-5x-555555555555-|
|-2-(2)-2-2-----2------5-5-5-5x5x5-5-5x5x5-5x-555555555555-|
|-2-(2)-2-2-----2------5-5-5-5x5x5-5-5x5x5-5x-555555555555-|
                       . . . . . . . . . . .  ......
Chorus 3 (Only Palm mute the 2nd time.)        x3
|-----------------------------------------------|
|-----------------------------------------------|
|------------5----5--5--------------------------|
|-2----2--2--5----5--5--5--5--5--5--4--4--4--4--|
|-2----2--2--3----3--3--5--5--5--5--4--4--4--4--|
|-2----2--2-------------5--5--5--5--4--4--4--4--|
                                    .  .  .  .  
|---------------------------------|
|---------------------------------|
|-2-2-2-2-2-2-2-2-5-5-5-5-5-5-5-5-|
|-2-2-2-2-2-2-2-2-5-5-5-5-5-5-5-5-|
|-0-0-0-0-0-0-0-0-3-3-3-3-3-3-3-3-|
|---------------------------------|
    . . . . . . . . . . . . . . . 
    Only Palm mute the second time.            x3
|-----------------------------------------------|
|-----------------------------------------------|
|------------5----5--5--------------------------|
|-2----2--2--5----5--5--5--5--5--5--4--4--4--4--|
|-2----2--2--3----3--3--5--5--5--5--4--4--4--4--|
|-2----2--2-------------5--5--5--5--4--4--4--4--|
                                    .  .  .  .
|-----------------------------------------------|
|-----------------------------------------------|
|------------5----5--5--------------------------|
|-2----2--2--5----5--5--5--5--5--5--4--4--4--4--|
|-2----2--2--3----3--3--5--5--5--5--4--4--4--4--|
|-2----2--2-------------5--5--5--5--4--4--4--4--|
                        .  .  .  .  .  .  .  .
That's it, enjoy! Please rate and comment!
Comments