Sick Puppies - Die To Save You Chords & Tabs

 

Die To Save You Chords & Tabs

Sick Puppies Chords & Tabs

Version: 1 Type: Bass Tab 0 ratings
1 star 2 stars 3 stars 4 stars 5 stars
comments

Die To Save You Bass Tab

-------------------------------------------------------------------------------
                             DIE TO SAVE YOU- Sick Puppies
-------------------------------------------------------------------------------
Tabbed by: Eeltje

Tuning: EADG
[ Tab from: http://www.guitartabs.cc/tabs/s/sick_puppies/die_to_save_you_btab.html ]
G|-----------------------------------------------------------5----------------|
D|--10----------------------------------------------6-----8-----6--8--5--6--5-|
A|-----------5--6-----5--6--5--6--8--5--6--8--6--8-----8----------------------|
E|--------8--------8----------------------------------------------------------|

G|---------------------------------------------------------------------------|
D|-----5--------------------5------------------------------------------------|
A|--6-----8--6--5-----5--6---------------------------------------------------|
E|-----------------8-----------8---------------------------------------------|

Repeated several times during the whole song.

===============================================================================
Comments