Sick Puppies - Deliverance Intro Chords & Tabs

 

Deliverance Intro Chords & Tabs

Sick Puppies Chords & Tabs

Version: 1 Type: Tab 0 ratings
1 star 2 stars 3 stars 4 stars 5 stars
comments

Deliverance Intro Tab

   
There are NO tab versions of this song that I can find so i figured it out myself. 
This leads up to the chorus.
I will figure out the rest asap, but for now, enjoy!!!

Tuning is drop c


    This riff is played twice
|------------------------------------------|
|-------------5-5--------5-5------5-5------|
|-xxxx-------------------------------------|
|-xxxx--3-3-3------3-3-3------3-3----------|
|-xxxx--3-3-3------3-3-3------3-3----------|
|-------3-3-3------3-3-3------3-3----------|
        . . .      . . .      . .
|----------------------------|
|--------5-5--------5-5--5b--|
|----------------------------|
|--0-0-0------0-0-0----------|
|--0-0-0------0-0-0----------|
|--0-0-0------0-0-0----------|
   . . .      . . .
The Verse is played without the second string and no palm muting
|--------------------------------------|
|--------------------------------------| 
|--------------------------------------|  
|---3-3-3------3-3-3------3~-----------|  
|---3-3-3------3-3-3------3~-----------|
|---3-3-3------3-3-3------3~-----------|
[ Tab from: http://www.guitartabs.cc/tabs/s/sick_puppies/deliverance_intro_tab.html ]
|----------------------------|
|----------------------------|
|----------------------------|
|--0-0-0------0-0-0---0~-----|
|--0-0-0------0-0-0---0~-----|
|--0-0-0------0-0-0---0~-----|


|--------------------------------------|
|---------5-5--------5-5------5-5------|
|--------------------------------------|
|---3-3-3------3-3-3------3-3----------|
|---3-3-3------3-3-3------3-3----------|
|---3-3-3------3-3-3------3-3----------|
    
|----------------------------|
|--------5-5--------5-5--5b--|
|----------------------------|
|--0-0-0------0-0-0----------|
|--0-0-0------0-0-0----------|
|--0-0-0------0-0-0----------|

|--------------------------------------|
|---------5-5--------5-5------5-5------|
|--------------------------------------|
|---3-3-3------3-3-3------3-3----------|
|---3-3-3------3-3-3------3-3----------|
|---3-3-3------3-3-3------3-3----------|

|--------------------------------------|
|--------------------------------------| 
|-7-7-7-7-9-9-9-9-1010101012121212-----|
|-x-x-x-x-x-x-x-x-x-x-x-x-x-x-x-x------|
|-5-5-5-5-7-7-7-7-8-8-8-8-10-10-10-----| 
|--------------------------------------|
                   10's and 12's

Key|
X= Muted Note
b= Bend
.= Palm mute
Comments