Sick Puppies - Cherub Rockeverlasting Gaze Chords & Tabs

 

Cherub Rockeverlasting Gaze Chords & Tabs

Sick Puppies Chords & Tabs

Version: 3 Type: Tab 0 ratings
1 star 2 stars 3 stars 4 stars 5 stars
comments

Cherub Rockeverlasting Gaze Tab

Sick Puppies
Cherub Rock
MySPace - Smashing Pumpkins Tribute Compilation

Drop C Tuning

| -2--2--2-2-2-2--2--2--2-2-2-2--|
| -3--3--3-3-3-3--3--3--3-3-3-3--|
| -2--2--2-2-2-2--2--2--2-2-2-2--|
| -0--0--0-0-0-0--0--0--0-0-0-0--|
| -------------------------------|
| -------------------------------|
  Intro

| -2--2--2-2-2-2--2--2--2-2-2-2-------------------|
| -3--3--3-3-3-3--3--3--3-3-3-3--1--1--3--3-3--3--|
| -2--2--2-2-2-2--2--2--2-2-2-2--0--0--0--0-0--0--|
| -0--0--0-0-0-0--0--0--0-0-0-0--2--2--0--0-0--0--|
| -------------------------------3--3-------------|
| -------------------------------------5--5-5--5--|
  Verse

| ---------------------------------------------------------------------------|
| -1--1--3--3-3-3--3-3--------6--6-6-6--1--1--3--3-3-3--3-3--------6--6-6-6--|
| -0--0--0--0-0-0--0-0--3--3--5--5-5-5--0--0--0--0-0-0--0-0--3--3--5--5-5-5--|
| -2--2--0--0-0-0--0-0--3--3--3--3-3-3--2--2--0--0-0-0--0-0--3--3--3--3-3-3--|
| -3--3-----------------1--1--3--3-3-3--3--3-----------------1--1--3--3-3-3--|
| -------5--5-5-5--5-5--------3--3-3-3--------5--5-5-5--5-5--------3--3-3-3--|
  Chorus

| -----------------------------------------|
| -1--1--3--3-3-3--3-3---------------------|
| -0--0--0--0-0-0--0-0--3--3-3--3-3-3-3-3--|
| -2--2--0--0-0-0--0-0--3--3-3--3-3-3-3-3--|
| -3--3-----------------1--1-1--1-1-1-1-1--|
| -------5--5-5-5--5-5---------------------|
  Chorus (continued...)

| --------------------------------------------------------------------|
| --------------------------------------------------------------------|
| -----8-7---7-----5-----5-----5/7-----8-7---7-----5-----5-----11/12--|
| --------------------------------------------------------------------|
| -----6-5---5-----3-----3-----3/5-----6-5---5-----3-----3------9/10--|
| -0-0-----0---0-0---0-0---0-0-----0-0-----0---0-0---0-0---0-0--------|
  Interlude

| -----------------------------------------|
| -----------------------------------8--8--|
| -----------------------------------7--7--|
| -----------------------------5--5--5--5--|
| -0-0----0-0---0-0----0-0-----3--3--5--5--|
| -0-0----0-0---0-0----0-0-----------5--5--|
  Second Verse

| -------------------------------------|
| ---------8--8-8-8----------6--6-6-6--|
| ---------7--7-7-7--3--3-3--5--5-5-5--|
| -5-5--5--5--5-5-5--3--3-3--3--3-3-3--|
| -3-3--3--5--5-5-5--1--1-1--3--3-3-3--|
| ---------5--5-5-5----------3--3-3-3--|
  Pre-Chorus
[ Tab from: http://www.guitartabs.cc/tabs/s/sick_puppies/cherub_rockeverlasting_gaze_tab_ver_3.html ]
| -----------------------------------------------------------------------------------------|
| -------8--8-8-8--------6--6-6-6-------8--8-8-8--------6--6-6-6-----------------8--8-8-8--|
| -------7--7-7-7--3--3--5--5-5-5-------7--7-7-7--3--3--5--5-5-5-----------------7--7-7-7--|
| -5--5--5--5-5-5--3--3--3--3-3-3-5--5--5--5-5-5--3--3--3--3-3-3--x-x-x-x--5--5--5--5-5-5--|
| -3--3--5--5-5-5--1--1--3--3-3-3-3--3--5--5-5-5--1--1--3--3-3-3--x-x-x-x--3--3--5--5-5-5--|
| -------5--5-5-5--------3--3-3-3-------5--5-5-5--------3--3-3-3--x-x-x-x--------5--5-5-5--|
  Chorus

| -------------------------------------------------------|
| -------------------------------------------------------|
| -------------------------------------------------------|
| -3--3--3-3--3--3-3--3--3-3--5--5--5-5--5--5-5--5--5-5--|
| -1--1--1-1--1--1-1--1--1-1--3--3--3-3--3--3-3--3--3-3--|
| -------------------------------------------------------|
  Chorus (continued...)

| ----------------------------------------------------|
| ----------------------------------------------------|
| ----8--7~-----8--7~---------------------------------|
| -0---------0---------8-8--8-8-8-8-8-8--8-8--8--8-8--|
| -0--6--5~--0--6--5~--6-6--6-6-6-6-6-6--6-6--6--6-6--|
| -0---------0----------------------------------------|
  Interlude

| ----------------------------------|
| ----------------------------------|
| ----------------------------------|
| -0--0-0-0-0-0-0---1--1-1-1-1-1-1--|
| -0--0-0-0-0-0-0---1--1-1-1-1-1-1--|
| -0--0-0-0-0-0-0---1--1-1-1-1-1-1--|
  Bridge

| -----------------------------------------------------|
| -12po0--12po0--8po0--8po0--10po0--10po0--5po0--5po0--|
| -----------------------------------------------------|
| -----------------------------------------------------|
| -----------------------------------------------------|
| -----------------------------------------------------|
  Solo - with wah (played over Bridge)

| ------------------------------------------|
| ------------------------------------------|
| ------------------------------------------|
| -3-3--3-3---5-5--5-5--0-0--0-0--0-0--0-0--|
| -3-3--3-3---5-5--5-5--0-0--0-0--0-0--0-0--|
| -3-3--3-3---5-5--5-5--0-0--0-0--0-0--0-0--|
  Chorus - Everlasting Gaze Change

| ----------------------------|
| ----------------------------|
| ----------------------------|
| ----------------------------|
| ---6-5---5---5---5---5-5-6--|
| -0-----0---0---0---0--------|
  Outro - Palm Muted
Comments