Sick Puppies - Anywhere But Here Chords & Tabs

 

Anywhere But Here Chords & Tabs

Sick Puppies Chords & Tabs

Version: 1 Type: Tab 0 ratings
1 star 2 stars 3 stars 4 stars 5 stars
comments

Anywhere But Here Tab

Artist: Sick Puppies
Album: Dressed Up As Life
Song: Anywhere But Here
Tuning: Drop C
Transcribed by Vincent Plenzo

I only saw one chord version for this song, and one guitar pro version so
I thought I'd make a contribution... This is my take on the song, enjoy :)


Key:
* = Natural Harmonic
~ = Let Ring
. = Palm Mute
x = Mute
/ = Slide Up
\ = Slide Down


Intro(Clean):

D --------------------------------------------------------------------|
A --------------------------------------------------------------------|
F --------6------------6------------6------------8--------------------|
C ------7---7--------7---7--------7---7--------7---7------------------|
G ---5--------7---5--------7---5--------7---5--------7----------------|
C --------------------------------------------------------------------|


D --------3-------------3-----------3------------3--------------------|
A ----------3-------------3-----------3------------3------------------|
F ------5-----5-------5-----5-----5-----5------5-----5----------------|
C --------------------------------------------------------------------|
G ---3-------------3------------3-----------3-------------------------|
C --------------------------------------------------------------------|


D -------3-----------3------------3-----------3-----------------------|
A ---------1-----------1------------1-----------1---------------------|
F -----3-----3-----3-----3-----3------3-----3-----3-------------------|
C --------------------------------------------------------------------|
G ---1-----------1-----------1------------1---------------------------|
C --------------------------------------------------------------------|


D --------------------------------------------------------------------|
A -------3---3--------3---3--------3---3-------3---3------------------|
F -----5---5--------5---5--------5---5-------5---5--------------------|
C --------------------------------------------------------------------|
G --------------------------------------------------------------------|
C ---3-----------3------------2------------2--------------------------|


D --------------------------------------------------------------------|
A --------------------------------------------------------------------|
F --------6------------6------------6------------8--------------------|
C ------7---7--------7---7--------7---7--------7---7------------------|
G ---5--------7---5--------7---5--------7---5--------7----------------|
C --------------------------------------------------------------------|


D --------3-------------3-----------3------------3--------------------|
A ----------3-------------3-----------3------------3------------------|
F ------5-----5-------5-----5-----5-----5------5-----5----------------|
C --------------------------------------------------------------------|
G ---3-------------3------------3-----------3-------------------------|
C --------------------------------------------------------------------|


D -------3-----------3------------3-----------3-----------------------|
A ---------1-----------1------------1-----------1---------------------|
F -----3-----3-----3-----3-----3------3-----3-----3-------------------|
C --------------------------------------------------------------------|
G ---1-----------1-----------1------------1---------------------------|
C --------------------------------------------------------------------|


D --------------------------------------------------------------------|
A -------3---3--------3---3--------3---3-------3---3-------6~~~-------|
F -----5---5--------5---5--------5---5-------5---5---------7~~~-------|
C ---------------------------------------------------------7~~~-------|
G ---------------------------------------------------------5~~~-------|
C ---3-----------3------------2------------2----------2---------------|

Verse(Distortion):

D --------------------------------------------------------------------|
A --------------------------------------------------------------------|
F --------------------------------------------------------------------|
C -------3p2p0------------0------------3p2p0-----------0--------------|
G --------------1p0---0h1--------------------1p0---0h1----------------|
C ---0-0------------0--------------0-0-----------0--------------------|


D --------------------------------------------------------------------|
A --------------------------------------------------------------------|
F --------------------------------------------------------------------|
C -------3p2p0------------0------------3p2p0-----------0*-------------|
G --------------1p0---0h1--------------------1p0---0h1----------------|
C ---0-0------------0--------------0-0-----------0--------------------|

D --------------------------------------------------------------------|
A --------------------------------------------------------------------|
F ---7-7---------7-7---------7-7---------7-7---------5-5---------5-5--|
C ---7-7---------7-7---------7-7---------7-7---------5-5---------5-5--|
G ---5-5--5-5-5--5-5--5-5-5--5-5--5-5-5--5-5--5-5-5--3-3--3-3-3--3-3--|
C --------------------------------------------------------------------|
          . . .       . . .       . . .       . . .       . . .

D --------------------------------------------------------------------|
A --------------------------------------------------------------------|
F ----------5-5---------5-5---------3-3---------3-3---------3-3-------|
C ----------5-5---------5-5---------3-3---------3-3---------3-3-------|
G ---3-3-3--3-3--3-3-3--3-3--3-3-3--1-1--1-1-1--1-1--1-1-1--1-1-------|
C --------------------------------------------------------------------|
     . . .       . . .       . . .       . . .       . . .

D -----------------------------------------------------------------------|
A ----------------------6-6---------6-6---------5-5---------5-5----------|
F ----------3-3---------5-5---------5-5---------4-4---------4-4----------|
C ----------3-3---------3-3---------3-3---------2-2---------2-2----------|
G ---1-1-1--1-1--1-1-1--3-3---------3-3---------2-2---------2-2----------|
C ----------------------3-3--3-3-3--3-3--3-3-3--2-2--2-2-2--2-2--1/15\1--|
     . . .       . . .       . . .       . . .       . . .


D --------------------------------------------------------------------|
A --------------------------------------------------------------------|
F ---7-7---------7-7---------7-7---------7-7---------5-5---------5-5--|
C ---7-7---------7-7---------7-7---------7-7---------5-5---------5-5--|
G ---5-5--5-5-5--5-5--5-5-5--5-5--5-5-5--5-5--5-5-5--3-3--3-3-3--3-3--|
C --------------------------------------------------------------------|
          . . .       . . .       . . .       . . .       . . .

D --------------------------------------------------------------------|
A --------------------------------------------------------------------|
F ----------5-5---------5-5---------3-3---------3-3---------3-3-------|
C ----------5-5---------5-5---------3-3---------3-3---------3-3-------|
G ---3-3-3--3-3--3-3-3--3-3--3-3-3--1-1--1-1-1--1-1--1-1-1--1-1-------|
C --------------------------------------------------------------------|
     . . .       . . .       . . .       . . .       . . .

D ----------------------|
A ----------------------|
F ----------3-3---------|
C ----------3-3---------|
G ---1-1-1--1-1--1-1-1--|
C ----------------------|
     . . .       . . .

Pre-Chorus(Distortion):

D ----------------------------------------------------|
A ---6-6--6-6-6--6-6--6-6-6--5-5--5-5-5--5-5--5-5-5---|
F ---5-5---------5-5---------4-4---------4-4----------|
C ---3-3---------3-3---------2-2---------2-2----------|
G ---3-3---------3-3---------2-2---------2-2----------|
C ---3-3---------3-3---------2-2---------2-2----------|


Chorus(Distortion):

Play each chord as many times as you find appropriate...
Just listen to the song to find the pattern

"This was my mistake..."                    "plans"           "so I will..."

D --------------------------------------------------------------------|
A --------------------------------------------------------------------|
F ---7-------9-------10------14-------12-------15-------12------10----|
C ---x-------x-------x--------x--------x--------x--------x-------x----|
G ---5-------7-------8-------12-------10-------13-------14-------8----|
C --------------------------------------------------------------------|

            "Cause anywhere's better than"
D --------------------------------------------------------------------|
A --------------------------------------------------------------------|
F ---9-----------------12-12------7-7---------------------------------|
C ---x-----------------10-10------5-5---------------------------------|
G ---7-----------------10-10------5-5---------------------------------|
C --------------10-10--10-10--5-5-5-5---------------------------------|
                .  .          . .


D --------------------------------------------------------------------|
A --------------------------------------------------------------------|
F --------------------------------------------------------------------|
C -------3p2p0------------0------------3p2p0-------xxx----------------|
G --------------1p0---0h1--------------------1-----xxx----------------|
C ---0-0------------0--------------0-0-------------xxx----------------|

the ending of the last sequence I just play 3 quick mutes

Second Verse(Distortion):

D --------------------------------------------------------------------|
A --------------------------------------------------------------------|
F ---7-7---------7-7---------7-7---------7-7---------5-5---------5-5--|
C ---7-7---------7-7---------7-7---------7-7---------5-5---------5-5--|
G ---5-5--5-5-5--5-5--5-5-5--5-5--5-5-5--5-5--5-5-5--3-3--3-3-3--3-3--|
C --------------------------------------------------------------------|
          . . .       . . .       . . .       . . .       . . .

D -------------------------------------3---6---3-------3---6---3------|
A -----------------------------------3---3---3-------3---3---3--------|
F ----------5-5---------5-5-------------------------------------------|
C ----------5-5---------5-5-------------------------------------------|
G ---3-3-3--3-3--3-3-3--3-3--3-3-3------------------------------------|
C --------------------------------------------------------------------|
     . . .       . . .       . . .

D -----3---6---6-------3---6---3--------------------------------------|
A ---3---3---3-------3---3---3--------6-6--6-6-6--5-5--5-5-5----------|
F ------------------------------------5-5---------4-4-----------------|
C ------------------------------------3-3---------2-2-----------------|
G ------------------------------------3-3---------2-2-----------------|
C ------------------------------------3-3---------2-2-----------------|

[ Tab from: http://www.guitartabs.cc/tabs/s/sick_puppies/anywhere_but_here_tab.html ]
This next section is entirely palm muted (and is also distorted):

D --------------------------------------------------------------------|
A --------------------------------------------------------------------|
F ----2---3---2---2---3---2---2---3---2---2---3---2----2---3---2------|
C --5---5---5---5---5---5---5---5---5---5---5---5---------------------|
G ---------------------------------------------------5---5---5--------|
C --------------------------------------------------------------------|


D --------------------------------------------------------------------|
A --------------------------------------------------------------------|
F ----2---3---2---2---3---2---2---3---2----2---3---2---2---3---2------|
C ---------------------------------------5---5---5---5---5---5--------|
G --5---5---5---5---5---5---5---5---5---------------------------------|
C --------------------------------------------------------------------|


D --------------------------------------------------------------------|
A --------------------------------------------------------------------|
F ----2---3---2---2---3---2---2---3---2---2---3---2---2---3---2-------|
C --5---5---5---5---5---5---------------------------------------------|
G --------------------------5---5---5---5---5---5---5---5---5---------|
C --------------------------------------------------------------------|

D --------------------------------------------------------------------|
A --------------------------------------------------------------------|
F ----2---3---2-------------------------------------------------------|
C --------------------------------------------------------------------|
G --5---5---5---------------------------------------------------------|
C --------------------------------------------------------------------|


Chorus(Distortion):

D --------------------------------------------------------------------|
A --------------------------------------------------------------------|
F ---7-------9-------10------14-------12-------15-------12------10----|
C ---x-------x-------x--------x--------x--------x--------x-------x----|
G ---5-------7-------8-------12-------10-------13-------14-------8----|
C --------------------------------------------------------------------|


D --------------------------------------------------------------------|
A --------------------------------------------------------------------|
F ---9-----------------12-12------7-7---------------------------------|
C ---x-----------------10-10------5-5---------------------------------|
G ---7-----------------10-10------5-5---------------------------------|
C --------------10-10--10-10--5-5-5-5---------------------------------|
                .  .          . .


Followed by:

D --------------------------------------------------------------------|
A --------------------------------------------------------------------|
F -------------------------------------------2b-----------------------|
C -0-0---------0-0---------0-0---------0------------------------------|
G -0-0---------0-0---------0-0---------0------------------------------|
C -0-0--0-0-0--0-0--0-0-0--0-0--0-0-0--0--0---------------------------|
        . . .       . . .       . . .     .


D --------------------------------------------------------------------|
A --------------------------------------------------------------------|
F -------------------------------------------2b-----------------------|
C -0-0---------0-0---------0-0---------0------------------------------|
G -0-0---------0-0---------0-0---------0------------------------------|
C -0-0--0-0-0--0-0--0-0-0--0-0--0-0-0--0--0---------------------------|
        . . .       . . .       . . .     .


D --------------------------------------------------------------------|
A --------------------------------------------------------------------|
F ----------------2b-------2b------2b---------------------------------|
C --0-0-----0-----------------------------13-12-10--6-5-3-------------|
G --0-0-----0-----------------------------13-12-10--6-5-3-------------|
C --0-0-0-0-0-0-0-----0-0------0-0--------13-12-10--6-5-3-------------|
        . .   . .     . .      . .


                                 "this"         "mistake"
D --------------------------------------------------------------------|
A --------------------------------------------------11~---------------|
F --------------------------------------------------10~---------------|
C ---------------------------------0~----------------8~---------------|
G ---------------------------------0~----------------8~---------------|
C --13-13-12-12-10-10-6-6-5-5-3-3--0~----------------8~---------------|
    .  .  .  .  .  .  . . . . . .


    "made"
D --------------------------------------------------------------------|
A ----6-6-6-6-6-6-6-6-6-6-6-6-6-6-6-6-6-6-6-6-6-6-6-6-----------------|
F ----5-5-5-5-5-5-5-5-5-5-5-5-5-5-5-5-5-5-5-5-5-5-5-5-----------------|
C ----0-0-0-0-0-0-0-0-0-0-0-0-0-0-0-0-0-0-0-0-0-0-0-0-----------------|
G ----0-0-0-0-0-0-0-0-0-0-0-0-0-0-0-0-0-0-0-0-0-0-0-0-----------------|
C ----0-0-0-0-0-0-0-0-0-0-0-0-0-0-0-0-0-0-0-0-0-0-0-0-----------------|
      . . . . . . . . . . . . . . . . . . . . . . . .


This next chord kind of fades in from the palm mutes to regular
chords,so I'll just give you the chord and you can play it the way
you find fit.

D --------------------------------------------------------------------|
A --------------------------------------------------------------------|
F ---12---------------------------------------------------------------|
C ---10---------------------------------------------------------------|
G ---10---------------------------------------------------------------|
C ---10---------------------------------------------------------------|
      .  (do a few of those then fade into the regular chord without
          the muting)

D --------------------------------------------------------------------|
A --------------------------------------------------------------------|
F --12-12-------7-7---------------------------------------------------|
C --10-10-------5-5---------------------------------------------------|
G --10-10-------5-5---------------------------------------------------|
C --10-10--5-5--5-5---------------------------------------------------|
           . .

Chorus(Distortion):

D --------------------------------------------------------------------|
A --------------------------------------------------------------------|
F ---7-------9-------10------14-------12-------15-------12------10----|
C ---x-------x-------x--------x--------x--------x--------x-------x----|
G ---5-------7-------8-------12-------10-------13-------14-------8----|
C --------------------------------------------------------------------|


D --------------------------------------------------------------------|
A --------------------------------------------------------------------|
F ---9-----------------12-12------7-7---------------------------------|
C ---x-----------------10-10------5-5---------------------------------|
G ---7-----------------10-10------5-5---------------------------------|
C --------------10-10--10-10--5-5-5-5---------------------------------|
                .  .          . .


D --------------------------------------------------------------------|
A --------------------------------------------------------------------|
F --------------------------------------------------------------------|
C -------3p2p0------------0------------3p2p0-----------0--------------|
G --------------1p0---0h1--------------------1p0---0h1----------------|
C ---0-0------------0--------------0-0-----------0--------------------|


D --------------------------------------------------------------------|
A --------------------------------------------------------------------|
F ----------------------------------------------2b--------------------|
C -------3p2p0------------0-------0-0------0--------------------------|
G --------------1p0---0h1---------0-0------0--------------------------|
C ---0-0------------0-------------0-0--0-0-0-0------------------------|
                                       . .   .


D ----------------------------------------------0h1p0h1p0-------------|
A --------------------------------------------------------------------|
F --------------------------------------------------------------------|
C -------3p2p0------------0------------3p2p0--------------------------|
G --------------1p0---0h1--------------------1------------------------|
C ---0-0------------0--------------0-0--------------------------------|


D --------------------------------------------------------------------|
A --------------------------------------------------------------------|
F --------------------------------------------------------------------|
C -------3p2p0------------0--------13-12-10-6-5-3-0~------------------|
G --------------1p0---0h1----------13-12-10-6-5-3-0~------------------|
C ---0-0------------0--------------13-12-10-6-5-3-0~------------------|


D --------------------------------------------------------------------|
A --------------------------------------------------------------------|
F --------6------------6------------6------------8--------------------|
C ------7---7--------7---7--------7---7--------7---7------------------|
G ---5--------7---5--------7---5--------7---5--------7----------------|
C --------------------------------------------------------------------|


D --------3-------------3-----------3------------3--------------------|
A ----------3-------------3-----------3------------3------------------|
F ------5-----5-------5-----5-----5-----5------5-----5----------------|
C --------------------------------------------------------------------|
G ---3-------------3------------3-----------3-------------------------|
C --------------------------------------------------------------------|


D -------3-----------3------------3-----------3-----------------------|
A ---------1-----------1------------1-----------1---------------------|
F -----3-----3-----3-----3-----3------3-----3-----3-------------------|
C --------------------------------------------------------------------|
G ---1-----------1-----------1------------1---------------------------|
C --------------------------------------------------------------------|


D ---------------------------------------------------------------------|
A -------3---3--------3---3--------3---3~~~--------6~~~----------------|
F -----5---5--------5---5--------5---5-------------7~~~----------------|
C -------------------------------------------------7~~~----------------|
G -------------------------------------------------5~~~----------------|
C ---3-----------3------------2----------------------------------------|


Alright, that's all she wrote guys :) If you have any questions or concerns
e-mail at vinnyp92@yahoo.com
Comments