Sick Puppies - All The Same Chords & Tabs

 

All The Same Chords & Tabs

Sick Puppies Chords & Tabs

Version: 8 Type: Tab 0 ratings
1 star 2 stars 3 stars 4 stars 5 stars
comments

All The Same Tab

   
Artist: Sick Puppies
Song: All The Same
Tuning: Drop C (CGCFAD)

I love this song very much, So I decided to tab it :]. Im 95% sure that this is
what you hear during the song. If you have any comments, Contact me via AIM.
xxPhenomenonSoul. Thank you, Hope you like it :].


Intro
D|-----------------------------------------------------|
A|-----------------------------------------------------|
F|-----------------------------------------------------|
C|-----------------------------------------------------|
G|-9-9-99---9-9-99-------------------------------------| 
C|-0-0-00---0-0-00-------------------------------------|



Verse
D|-----------------------------------------------------|
A|-----------------------------------------------------|
F|-----------------------------------------------------|
C|-----------------------------------------------------|
G|-9-9-99-----4-4-44-----9-9-99-----5-5-55-------------| 
C|-0-0-00-x2-4-4-44-x2-9-9-99-x2-5-5-55-x2----------| x2


Pre Chorus.
D|-----------|
A|-----------|
F|-----------|
C|-50-0-00---|
G|-50-0-00---|
C|-50-0-00---| x3

Chorus
D|----------------------------------------------------|
A|----------------------------------------------------|
F|---Strum-Notes--------------------------------------|
C|----------------------------------------------------|
G|-9-9999-9-9999-9-9999-9-9999-5-5555-5-5555-5-5555-5-|
C|-9-9999-9-9999-9-9999-9-9999-5-5555-5-5555-5-5555-5-|

D|----------------------------------------------------|
A|----------------------------------------------------|
F|----------------------------------------------------|
C|----------------------------------------------------|
G|-5555-0-0000-0-0000-0-0000-0-0000-7-7777-7-7777-7---|
C|-5555-0-0000-0-0000-0-0000-0-0000-7-7777-7-7777-7---|

D|----------------------------------------------------|
A|----------------------------------------------------|
F|----------------------------------------------------|
C|----------------------------------------------------|
G|-7777-7-7777----------------------------------------|
C|-7777-7-7777----------------------------------------| x2


Goes Back To Verse


Pre Solo
D|-----------|
A|-----------|
F|-----------|
C|-55-5-55---|
G|-55-5-55---|
c|-55-5-55---| x3
[ Tab from: http://www.guitartabs.cc/tabs/s/sick_puppies/all_the_same_tab_ver_8.html ]
Solo
D|-----------------------------------------------------------|
A|-8b10r8--------------------8b10r8--------------------------|
F|-------11-7-7-9-9h11--11---------11-9-6--6--7--7-2--2------|
C|-----------------------------------------------------------|
G|-----------------------------------------------------------|
c|-----------------------------------------------------------|


D|----------------------------|
A|--8b10r8--------------------|
F|--------11-9-7-9b11r9-/14---|
C|----------------------------|
G|----------------------------|
c|----------------------------|


Over the solo
D|-----------------------------------------|
A|-----------------------------------------|
F|-----------------------------------------|
C|-----------------------------------------|
G|0-0000-0-0000-0-0000-0-0000-7-7777-7-7777| 
C|0-0000-0-0000-0-0000-0-0000-7-7777-7-7777|

D|-----------------------------------------|
A|-----------------------------------------|
F|-----------------------------------------|
C|-----------------------------------------|
G|7-7777-7-7777-5-5555-5-5555-5-5555-5-5555| 
C|7-7777-7-7777-5-5555-5-5555-5-5555-5-5555|


Post Solo
D|-----------|
A|-----------|
F|-----------|
C|-55-5-55---|
G|-55-5-55---|
c|-55-5-55---| x3

Bridge
D|-----------------------------------------|
A|-----------------------------------------|
F|-----------------------------------------|
C|-----------------------------------------|
G|0-0000-0-0000-0-0000-0-0000-7-7777-7-7777| 
C|0-0000-0-0000-0-0000-0-0000-7-7777-7-7777|

D|-----------------------------------------|
A|-----------------------------------------|
F|-----------------------------------------|
C|-----------------------------------------|
G|7-7777-7-7777-5-5555-5-5555-5-5555-5-5555| 
C|7-7777-7-7777-5-5555-5-5555-5-5555-5-5555|


D|-----------|
A|-----------|
F|-----------|
C|-55-5-55---|
G|-55-5-55---|
c|-55-5-55---|x3

D|-----------------------------------------|
A|-----------------------------------------|
F|-----------------------------------------|
C|-----------------------------------------|
G|0-0000-0-0000-0-0000-0-0000-7-7777-7-7777| 
C|0-0000-0-0000-0-0000-0-0000-7-7777-7-7777|

D|-----------------------------------------|
A|-----------------------------------------|
F|-----------------------------------------|
C|-----------------------------------------|
G|7-7777-7-7777-5-5555-5-5555-5-5555-5-5555| 
C|7-7777-7-7777-5-5555-5-5555-5-5555-5-5555|


D|-----------|
A|-----------|
F|-----------|
C|-55-5-55---|
G|-55-5-55---|
c|-55-5-55---|x3

Then Play The Chorus Until This Part At The End
D|-----------|
A|-----------|
F|-----------|
C|-----------|
G|0-0-00-----|
c|0-0-00-----| Continues Until End Of Song
Comments