Sick Puppies - All The Same Chords & Tabs

 

All The Same Chords & Tabs

Sick Puppies Chords & Tabs

Version: 6 Type: Tab 0 ratings
1 star 2 stars 3 stars 4 stars 5 stars
comments

All The Same Tab

   
Song Title: All The Same
Artist: Sick Puppies
Tabber: Max Deuble (www.myspace.com/maxpd)

This is an excellent song - and possibly Sick Puppies most famous one given its massive 
on YouTube. I have seen

other versions of this tab, but i believe that this is the way Shimon plays it. Any 
or suggestions, please feel free

to email me at d__o__a@hotmail.com

Tuning:
Gtr I (C G C F A D) - 'Acoustic Rhythm'
Gtr II (C G C F A D) - 'Acoustic Lead'
Gtr III (C G C F A D) - 'Electric Rhythm'
Gtr IV (C G C F A D) - 'Electric Lead'
Gtr V (C G C F A D) - 'Electric Fill'

  Q.=59
 6/8
  Gtr I
|---------------|---------------|
|---------------|---------------|
|---------------|---------------|
|-12-12-12-12---|-12-12-12-12---|
|--9--9--9--9---|--9--9--9--9---|
|--0--0--0--0---|--0--0--0--0---|


    Gtr I
||----------------|---------------|---------------|---------------|
||o---------------|---------------|---------------|---------------|
||----------------|---------------|---------------|---------------|
||--12-12-12-12---|-12-12-12-12---|-12-12-12-12---|-12-12-12-12---|
||o--9--9--9--9---|--9--9--9--9---|--9--9--9--9---|--9--9--9--9---|
||---0--0--0--0---|--0--0--0--0---|-11-11-11-11---|-11-11-11-11---|


|---------------|---------------|-----------|------------||
|---------------|---------------|-----------|-----------o||
|-11-11-11-11---|-11-11-11-11---|-7-7-7-7---|-7-7-7-7----||
|-12-12-12-12---|-12-12-12-12---|-5-5-5-5---|-5-5-5-5----||
|--9--9--9--9---|--9--9--9--9---|-5-5-5-5---|-5-5-5-5---o||
|--9--9--9--9---|--9--9--9--9---|-5-5-5-5---|-5-5-5-5----||


||---------------||-------------|--------|
||o-------------o||-------------|--------|
||---------------||-------------|--------|
||--5-0-0-0-0----||-5-0-0-0-0---|-(0)----|
||o-5-0-0-0-0---o||-5-0-0-0-0---|-(0)----|
||--5-0-0-0-0----||-5-0-0-0-0---|-(0)----|


    Gtr I
||------------------------------------|-----------------------------------|
||o-----------------------------------|-----------------------------------|
||--11---11-11-11-11-11---11-11-11-11-|-11---11-11-11-11-11---11-11-11-11-|
||--12---12-12-12-12-11---11-11-11-11-|--9----9--9--9--9--9----9--9--9--9-|
||o--9----9--9--9--9--9----9--9--9--9-|--9----9--9--9--9--9----9--9--9--9-|
||---9----9--9--9--9--9----9--9--9--9-|--9----9--9--9--9--9----9--9--9--9-|
|
|   Gtr II
||-----------5-----5----------5-----5-|----------5-----5----------5-----5-|
||o--2h3--------------2h3-------------|--2h3--------------2h3-------------|
||------------------------------------|-----------------------------------|
||------------------------------------|-----------------------------------|
||o-----------------------------------|-----------------------------------|
||------------------------------------|-----------------------------------|


|-------------------------|-------------------------|
|-------------------------|-------------------------|
|-------------------------|-------------------------|
|-9---9-9-9-9-7---7-7-7-7-|-5---5-5-5-5-5---5-5-5-5-|
|-5---5-5-5-5-5---5-5-5-5-|-5---5-5-5-5-5---5-5-5-5-|
|-5---5-5-5-5-5---5-5-5-5-|-5---5-5-5-5-5---5-5-5-5-|
|
|-------5---5-------5---5-|-------5---5-------5---5-|
|-2h3---------2h3---------|-2h3---------2h3---------|
|-------------------------|-------------------------|
|-------------------------|-------------------------|
|-------------------------|-------------------------|
|-------------------------|-------------------------|


|---------------------|---------------------|
|---------------------|---------------------|
|---------------------|---------------------|
|-0-0-0-0-0-0-0-0-0-0-|-0-0-0-0-0-0-0-0-0-0-|
|-0-0-0-0-0-0-0-0-0-0-|-0-0-0-0-0-0-0-0-0-0-|
|-0-0-0-0-0-0-0-0-0-0-|-0-0-0-0-0-0-0-0-0-0-|
|
| Gtr II
|---------------------|---------------------|
|-7-7-7-7-7-5-5-5-5-5-|-8-8-8-8-8-7-7-7-7-7-|
|---------------------|---------------------|
|-4-4-4-4-4-2-2-2-2-2-|-5-5-5-5-5-4-4-4-4-4-|
|---------------------|---------------------|
|---------------------|---------------------|


  1.
|-------------------------------|--------------------------------||
|-------------------------------|-------------------------------o||
|-------------------------------|--------------------------------||
|--7--7--7--7--7--9--9--9--9--9-|-11-11-11-11-11-11-11-11-11-11--||
|--7--7--7--7--7--7--7--7--7--7-|--7--7--7--7--7--7--7--7--7--7-o||
|--7--7--7--7--7--7--7--7--7--7-|--7--7--7--7--7--7--7--7--7--7--||
|
|-------------------------------|--------------------------------||
|-10-10-10-10-10-12-12-12-12-12-|-14-14-14-14-14-14-14-14-14-14-o||
|-------------------------------|--------------------------------||
|--7--7--7--7--7--9--9--9--9--9-|-11-11-11-11-11-11-11-11-11-11--||
|-------------------------------|-------------------------------o||
|-------------------------------|--------------------------------||


  2.
|-------------------------------|-------|
|-------------------------------|-------|
|-------------------------------|-------|
|--7--7--7--7--7--9--9--9--9--9-|-11----|
|--7--7--7--7--7--7--7--7--7--7-|--7----|
|--7--7--7--7--7--7--7--7--7--7-|--7----|
|
|-------------------------------|-------|
|-10-10-10-10-10-12-12-12-12-12-|-14----|
|-------------------------------|-------|
|--7--7--7--7--7--9--9--9--9--9-|-11----|
|-------------------------------|-------|
|-------------------------------|-------|


  Gtr I
|---------------|-----------------|
|---------------|-----------------|
|---------------|-----------------|
|-12-12-12-12---|--12--12-12-12---|
|--9--9--9--9---|---9---9--9--9---|
|--0--0--0--0---|---0---0--0--0---|
|
| Gtr II
|---------------|-----------------|
|---------------|-----------------|
|---------------|-----------------|
|-12------------|-(12)------------|
|--9------------|--(9)------------|
|--0------------|--(0)------------|


    Gtr I
||----------------|-----------------|---------------|-----------------|
||o---------------|-----------------|---------------|-----------------|
||----------------|-----------------|---------------|-----------------|
||--12-12-12-12---|--12--12-12-12---|-12-12-12-12---|--12--12-12-12---|
||o--9--9--9--9---|---9---9--9--9---|--9--9--9--9---|---9---9--9--9---|
||---0--0--0--0---|---0---0--0--0---|-11-11-11-11---|--11--11-11-11---|
|
|   Gtr V
||----------------|-----------------|---------------|-----------------|
||o---------------|-----------------|---------------|-----------------|
||----------------|-----------------|---------------|-----------------|
||--12------------|-(12)------------|-12------------|-(12)------------|
||o--9------------|--(9)------------|--9------------|--(9)------------|
||---0------------|--(0)------------|-11------------|-(11)------------|


  1.
|---------------|-----------------|-----------|--------------||
|---------------|-----------------|-----------|-------------o||
|-11-11-11-11---|--11--11-11-11---|-7-7-7-7---|--7--7-7-7----||
|-12-12-12-12---|--12--12-12-12---|-5-5-5-5---|--5--5-5-5----||
|--9--9--9--9---|---9---9--9--9---|-5-5-5-5---|--5--5-5-5---o||
|--9--9--9--9---|---9---9--9--9---|-5-5-5-5---|--5--5-5-5----||
|
|---------------|-----------------|-----------|--------------||
|---------------|-----------------|-----------|-------------o||
|-11------------|-(11)------------|-7---------|-(7)----------||
|-12------------|-(12)------------|-5---------|-(5)----------||
|--9------------|--(9)------------|-5---------|-(5)---------o||
|--9------------|--(9)------------|-5---------|-(5)----------||


  2.
|---------------|-----------------|-----------|-------------|
|---------------|-----------------|-----------|-------------|
|-11-11-11-11---|--11--11-11-11---|-7-7-7-7---|--7--7-7-7---|
|-12-12-12-12---|--12--12-12-12---|-5-5-5-5---|--5--5-5-5---|
|--9--9--9--9---|---9---9--9--9---|-5-5-5-5---|--5--5-5-5---|
|--9--9--9--9---|---9---9--9--9---|-5-5-5-5---|--5--5-5-5---|
|
|---------------|-----------------|-----------|-------------|
|---------------|-----------------|-----------|-------------|
|-11------------|-(11)------------|-7---------|-(7)---------|
|-12------------|-(12)------------|-5---------|-(5)---------|
|--9------------|--(9)------------|-5---------|-(5)---------|
|--9------------|--(9)------------|-5---------|-(5)---------|
|
| Gtr IV
|                                   <
|---------------|-----------------|-----------|-------------|
|---------------|-----------------|-----------|-------------|
|---------------|-----------------|-7---------|-(7)---------|
|---------------|-----------------|-5---------|-(5)---------|
|---------------|-----------------|-5---------|-(5)---------|
|---------------|-----------------|-5---------|-(5)---------|


    Gtr III
||---------------------------------||
||o-------------------------------o||
||---------------------------------||
||--5-0-0-0-0----------------------||
||o-5-0-0-0-0---------------------o||
||--5-0-0-0-0----------------------||
|
|   Gtr IV
||---------------------------------||
||o-------------------------------o||
||---------------------------------||
||--5-0-0-0-0-<5>-<5>-<5>-<5>-<5>--||
||o-5-0-0-0-0--x---x---x---x---x--o||
||--5-0-0-0-0--x---x---x---x---x---||


                PM------------------------|
|-------------|---------------------------|
|-------------|---------------------------|
|-------------|---------------------------|
|-5-0-0-0-0---|---------------------------|
|-5-0-0-0-0---|-------------0-0-0-0-0-0---|
|-5-0-0-0-0---|-0-0-0-0-0-0-0-0-0-0-0-0---|
|
|               PM------------------------|
|-------------|---------------------------|
|-------------|---------------------------|
|-------------|---------------------------|
|-5-0-0-0-0---|-------------0-0-0-0-0-0---|
|-5-0-0-0-0---|-0-0-0-0-0-0-0-0-0-0-0-0---|
|-5-0-0-0-0---|-0-0-0-0-0-0-0-0-0-0-0-0---|


    Gtrs I, III
||------------------------------------|-----------------------------------|
||o-----------------------------------|-----------------------------------|
||--11---11-11-11-11-11---11-11-11-11-|-11---11-11-11-11-11---11-11-11-11-|
||--12---12-12-12-12-11---11-11-11-11-|--9----9--9--9--9--9----9--9--9--9-|
||o--9----9--9--9--9--9----9--9--9--9-|--9----9--9--9--9--9----9--9--9--9-|
||---9----9--9--9--9--9----9--9--9--9-|--9----9--9--9--9--9----9--9--9--9-|
|
|   Gtr IV
||------------------------------------|-----------------------------------|
||o-----------------------------------|-----------------------------------|
||---7-7--7--7--7--7--6-6--6--6--6--6-|--4-4--4--4--4--4--4-4--4--4--4--4-|
||------------------------------------|-----------------------------------|
||o--5-5--5--5--5--5--4-4--4--4--4--4-|--2-2--2--2--2--2--2-2--2--2--2--2-|
||------------------------------------|-----------------------------------|


|-------------------------|-------------------------|
|-------------------------|-------------------------|
|-------------------------|-------------------------|
|-9---9-9-9-9-7---7-7-7-7-|-5---5-5-5-5-5---5-5-5-5-|
|-5---5-5-5-5-5---5-5-5-5-|-5---5-5-5-5-5---5-5-5-5-|
|-5---5-5-5-5-5---5-5-5-5-|-5---5-5-5-5-5---5-5-5-5-|
|
|-------------------------|-------------------------|
|-------------------------|-------------------------|
|-4-4-4-4-4-4-2-2-2-2-2-2-|-------------------------|
|-------------------------|-5-5-5-5-5-5-5-5-5-5-5-5-|
|-2-2-2-2-2-2-0-0-0-0-0-0-|-------------------------|
|-------------------------|-5-5-5-5-5-5-5-5-5-5-5-5-|


|--------------------------|-------------------------------|
|--------------------------|-------------------------------|
|--------------------------|-------------------------------|
|--0--0--0--0--0-0-0-0-0-0-|--0--0--0--0--0--0--0--0--0--0-|
|--0--0--0--0--0-0-0-0-0-0-|--0--0--0--0--0--0--0--0--0--0-|
|--0--0--0--0--0-0-0-0-0-0-|--0--0--0--0--0--0--0--0--0--0-|
|
|--------------------------|-------------------------------|
|--------------------------|-------------------------------|
|-11-11-11-11-11-9-9-9-9-9-|-12-12-12-12-12-11-11-11-11-11-|
|--------------------------|-------------------------------|
|--9--9--9--9--9-7-7-7-7-7-|-10-10-10-10-10--9--9--9--9--9-|
|--------------------------|-------------------------------|


|-------------------------------|--------------------------------||
|-------------------------------|-------------------------------o||
|-------------------------------|--------------------------------||
|--7--7--7--7--7--9--9--9--9--9-|-11-11-11-11-11-11-11-11-11-11--||
|--7--7--7--7--7--7--7--7--7--7-|--7--7--7--7--7--7--7--7--7--7-o||
|--7--7--7--7--7--7--7--7--7--7-|--7--7--7--7--7--7--7--7--7--7--||
|
|-------------------------------|--------------------------------||
|-------------------------------|-------------------------------o||
|-14-14-14-14-14-16-16-16-16-16-|-18-18-18-18-18-18-18-18-18-18--||
|-------------------------------|--------------------------------||
|-12-12-12-12-12-14-14-14-14-14-|-16-16-16-16-16-16-16-16-16-16-o||
|-------------------------------|--------------------------------||


  Gtrs I, II, III
|-----------------|-------------------|
|-----------------|-------------------|
|-----------------|-------------------|
|-0-5-5-5-0-5-5-5-|-0-5-5-5-5---------|
|-0-5-5-5-0-5-5-5-|-0-5-5-5-5---------|
|-0-5-5-5-0-5-5-5-|-0-5-5-5-5---------|
|
| Gtr IV
|-----------------|-------------------|
|-----------------|---------7b8r(7)-5-|
|-----------------|-------------------|
|-----------------|-------------------|
|-----------------|-------------------|
|-----------------|-------------------|


  Gtr III
|-------------|--------------------|
|-------------|--------------------|
|-------------|--------------------|
|-0-----------|-(0)----------------|
|-0-----------|-(0)----------------|
|-0-----------|-(0)----------------|
|
| ~     ~
|-------------|--------------------|
|-3-3-3-5-5-5-|--5h7-7-7-7b8r(7)-5-|
|-------------|--------------------|
|-------------|--------------------|
|-------------|--------------------|
|-------------|--------------------|

[ Tab from: http://www.guitartabs.cc/tabs/s/sick_puppies/all_the_same_tab_ver_6.html ]
|---------------|-------------------|
|---------------|-------------------|
|---------------|-------------------|
|-7-------------|-(7)---------------|
|-7-------------|-(7)---------------|
|-7-------------|-(7)---------------|
|
|                  ~~~
|---------------|-------------------|
|-2-2-2-2h3-3-3-|---------7b8r(7)-5-|
|---------------|--2--2-2-----------|
|---------------|-------------------|
|---------------|-------------------|
|---------------|-------------------|


|--------------------|----------|
|--------------------|----------|
|--------------------|----------|
|-5------------------|-(5)------|
|-5------------------|-(5)------|
|-5------------------|-(5)------|
|
|                       ~~~~~
|--------------------|----------|
|-3-3-x-7b8==(7)r(7)-|--8b10----|
|--------------------|----------|
|--------------------|----------|
|--------------------|----------|
|--------------------|----------|


|-----------------|-----------------|
|-----------------|-----------------|
|-----------------|-----------------|
|-5-0-0-0-5-0-0-0-|-5-0-0-0-5-0-0-0-|
|-5-0-0-0-5-0-0-0-|-5-0-0-0-5-0-0-0-|
|-5-0-0-0-5-0-0-0-|-5-0-0-0-5-0-0-0-|
|
|-----------------|-----------------|
|-----------------|-----------------|
|-----------------|-----------------|
|-5-0-0-0-5-0-0-0-|-5-0-0-0-5-0-0-0-|
|-5-0-0-0-5-0-0-0-|-5-0-0-0-5-0-0-0-|
|-5-0-0-0-5-0-0-0-|-5-0-0-0-5-0-0-0-|


    Gtr I
||--------------------------------|--------------------------------|
||o-------------------------------|--------------------------------|
||--------------------------------|--------------------------------|
||--12-12-12-12-12-14-14-14-14-14-|-16--16-16-16-16-16-16-16-16-16-|
||o-12-12-12-12-12-12-12-12-12-12-|-12--12-12-12-12-12-12-12-12-12-|
||--12-12-12-12-12-12-12-12-12-12-|-12--12-12-12-12-12-12-12-12-12-|
|
|   Gtrs III, IV
||--------------------------------|--------------------------------|
||o-------------------------------|--------------------------------|
||--------------------------------|--------------------------------|
||---0----------------------------|-(0)----------------------------|
||o--0----------------------------|-(0)----------------------------|
||---0----------------------------|-(0)----------------------------|


|---------------------|--------------------------------|
|---------------------|--------------------------------|
|---------------------|--------------------------------|
|-7-7-7-7-7-9-9-9-9-9-|-11--11-11-11-11-11-11-11-11-11-|
|-7-7-7-7-7-7-7-7-7-7-|--7---7--7--7--7--7--7--7--7--7-|
|-7-7-7-7-7-7-7-7-7-7-|--7---7--7--7--7--7--7--7--7--7-|
|
|---------------------|--------------------------------|
|---------------------|--------------------------------|
|---------------------|--------------------------------|
|-7-------------------|-(7)----------------------------|
|-7-------------------|-(7)----------------------------|
|-7-------------------|-(7)----------------------------|


|---------------------|-----------------------|
|---------------------|-----------------------|
|---------------------|-----------------------|
|-5-5-5-5-5-7-7-7-7-7-|--9--9-9-9-9-9-x-x-x-x-|
|-5-5-5-5-5-5-5-5-5-5-|--5--5-5-5-5-5-x-x-x-x-|
|-5-5-5-5-5-5-5-5-5-5-|--5--5-5-5-5-5-x-x-x-x-|
|
|---------------------|-----------------------|
|---------------------|-----------------------|
|---------------------|-----------------------|
|-5-------------------|-(5)-------------------|
|-5-------------------|-(5)-------------------|
|-5-------------------|-(5)-------------------|


|-----------------|------------------||
|-----------------|-----------------o||
|-----------------|------------------||
|-5-0-0-0-5-0-0-0-|-5-0-0-0-5-0-0-0--||
|-5-0-0-0-5-0-0-0-|-5-0-0-0-5-0-0-0-o||
|-5-0-0-0-5-0-0-0-|-5-0-0-0-5-0-0-0--||
|
|-----------------|------------------||
|-----------------|-----------------o||
|-----------------|------------------||
|-5-0-0-0-5-0-0-0-|-5-0-0-0-5-0-0-0--||
|-5-0-0-0-5-0-0-0-|-5-0-0-0-5-0-0-0-o||
|-5-0-0-0-5-0-0-0-|-5-0-0-0-5-0-0-0--||


  Gtrs I, III
|-----------------------------------|-----------------------------------|
|-----------------------------------|-----------------------------------|
|-11---11-11-11-11-11---11-11-11-11-|-11---11-11-11-11-11---11-11-11-11-|
|-12---12-12-12-12-11---11-11-11-11-|--9----9--9--9--9--9----9--9--9--9-|
|--9----9--9--9--9--9----9--9--9--9-|--9----9--9--9--9--9----9--9--9--9-|
|--9----9--9--9--9--9----9--9--9--9-|--9----9--9--9--9--9----9--9--9--9-|
|
| Gtr IV
|-----------------------------------|-----------------------------------|
|-----------------------------------|-----------------------------------|
|--7-7--7--7--7--7--6-6--6--6--6--6-|--4-4--4--4--4--4--4-4--4--4--4--4-|
|-----------------------------------|-----------------------------------|
|--5-5--5--5--5--5--4-4--4--4--4--4-|--2-2--2--2--2--2--2-2--2--2--2--2-|
|-----------------------------------|-----------------------------------|


|-------------------------|-------------------------|
|-------------------------|-------------------------|
|-------------------------|-------------------------|
|-9---9-9-9-9-7---7-7-7-7-|-5---5-5-5-5-5---5-5-5-5-|
|-5---5-5-5-5-5---5-5-5-5-|-5---5-5-5-5-5---5-5-5-5-|
|-5---5-5-5-5-5---5-5-5-5-|-5---5-5-5-5-5---5-5-5-5-|
|
|-------------------------|-------------------------|
|-------------------------|-------------------------|
|-4-4-4-4-4-4-2-2-2-2-2-2-|-------------------------|
|-------------------------|-5-5-5-5-5-5-5-5-5-5-5-5-|
|-2-2-2-2-2-2-0-0-0-0-0-0-|-------------------------|
|-------------------------|-5-5-5-5-5-5-5-5-5-5-5-5-|


|--------------------------|---------------------|
|--------------------------|---------------------|
|--------------------------|---------------------|
|--0--0--0--0--0-0-0-0-0-0-|--0--0--0--0--0--0---|
|--0--0--0--0--0-0-0-0-0-0-|--0--0--0--0--0--0---|
|--0--0--0--0--0-0-0-0-0-0-|--0--0--0--0--0--0---|
|
|--------------------------|---------------------|
|--------------------------|---------------------|
|-11-11-11-11-11-9-9-9-9-9-|-12-12-12-12-12-11---|
|--------------------------|---------------------|
|--9--9--9--9--9-7-7-7-7-7-|-10-10-10-10-10--9---|
|--------------------------|---------------------|


|-------------------------------|-------------------------------|
|-------------------------------|-------------------------------|
|-------------------------------|-------------------------------|
|--7--7--7--7--7--9--9--9--9--9-|-11-11-11-11-11-11-11-11-11-11-|
|--7--7--7--7--7--7--7--7--7--7-|--7--7--7--7--7--7--7--7--7--7-|
|--7--7--7--7--7--7--7--7--7--7-|--7--7--7--7--7--7--7--7--7--7-|
|
|-------------------------------|-------------------------14----|
|-------------------------------|--------------------x--x-------|
|-14-14-14-14-14-16-16-16-16-16-|-18-18-18-18-18-18--x--x-11----|
|-------------------------------|--------------------x--x-------|
|-12-12-12-12-12-14-14-14-14-14-|-16-16-16-16-16-16--x--x-------|
|-------------------------------|-------------------------------|


|---------------------------|---------------------------|
|---------------------------|---------------------------|
|---------------------------|---------------------------|
|-9---9-9--9-9-9---9-9--9-9-|-9---9-9--9-9-9---9-9--9-9-|
|-9---9-9--9-9-9---9-9--9-9-|-9---9-9--9-9-9---9-9--9-9-|
|-9---9-9--9-9-9---9-9--9-9-|-9---9-9--9-9-9---9-9--9-9-|
|
|---------------------------|---------------------------|
|---------------------------|---------------------------|
|-7-7-7-7--7-7-6-6-6-6--6-6-|-4-4-4-4--4-4-4-4-4-4--4-4-|
|---------------------------|---------------------------|
|-5-5-5-5--5-5-4-4-4-4--4-4-|-2-2-2-2--2-2-2-2-2-2--2-2-|
|---------------------------|---------------------------|
|
| Gtr V
|---------14-----------14---|---------14-----------14---|
|---------------------------|---------------------------|
|---------11-----------11---|---------11-----------11---|
|---------------------------|---------------------------|
|---------------------------|---------------------------|
|---------------------------|---------------------------|


|---------------------------|---------------------------|
|---------------------------|---------------------------|
|---------------------------|---------------------------|
|-5---5-5--5-5-5---5-5--5-5-|-5---5-5--5-5-5---5-5--5-5-|
|-5---5-5--5-5-5---5-5--5-5-|-5---5-5--5-5-5---5-5--5-5-|
|-5---5-5--5-5-5---5-5--5-5-|-5---5-5--5-5-5---5-5--5-5-|
|
|---------------------------|---------------------------|
|---------------------------|---------------------------|
|-4-4-4-4--4-4-2-2-2-2--2-2-|---------------------------|
|---------------------------|-5-5-5-5--5-5-5-5-5-5--5-5-|
|-2-2-2-2--2-2-0-0-0-0--0-0-|---------------------------|
|---------------------------|-5-5-5-5--5-5-5-5-5-5--5-5-|
|
|---------14-----------14---|---------14-----------14---|
|---------------------------|---------------------------|
|---------11-----------11---|---------11-----------11---|
|---------------------------|---------------------------|
|---------------------------|---------------------------|
|---------------------------|---------------------------|


      PM------|    PM-----|       PM------|      PM-----------|
|---------------------------|---------------------------------|
|---------------------------|---------------------------------|
|---------------------------|---------------------------------|
|--0-------------0----------|--0--------------0---------------|
|--0--0--0--0--0-0-0-0--0-0-|--0--0--0--0--0--0--0--0--0--0---|
|--0--0--0--0--0-0-0-0--0-0-|--0--0--0--0--0--0--0--0--0--0---|
|
|---------------------------|-------------------------------|
|---------------------------|-------------------------------|
|-11-11-11-11-11-9-9-9--9-9-|-12-12-12-12-12-11-11-11-11-11-|
|---------------------------|-------------------------------|
|--9--9--9--9--9-7-7-7--7-7-|-10-10-10-10-10--9--9--9--9--9-|
|---------------------------|-------------------------------|
|
|----------14----------14---|----------14-------------14----|
|---------------------------|-------------------------------|
|----------11----------11---|----------11-------------11----|
|---------------------------|-------------------------------|
|---------------------------|-------------------------------|
|---------------------------|-------------------------------|


|-------------------------------|-------------------------------|
|-------------------------------|-------------------------------|
|-------------------------------|-------------------------------|
|--7--7--7--7--7--7--7--7--7--7-|--7--7--7--7--7--7--7--7--7--7-|
|--7--7--7--7--7--7--7--7--7--7-|--7--7--7--7--7--7--7--7--7--7-|
|--7--7--7--7--7--7--7--7--7--7-|--7--7--7--7--7--7--7--7--7--7-|
|
|-------------------------------|-------------------------------|
|-------------------------------|-------------------------------|
|-14-14-14-14-14-16-16-16-16-16-|-18-18-18-18-18-18-18-18-18-18-|
|-------------------------------|-------------------------------|
|-12-12-12-12-12-14-14-14-14-14-|-16-16-16-16-16-16-16-16-16-16-|
|-------------------------------|-------------------------------|
|
|----------14-------------14----|----------14-------------14----|
|-------------------------------|-------------------------------|
|----------11-------------11----|----------11-------------11----|
|-------------------------------|-------------------------------|
|-------------------------------|-------------------------------|
|-------------------------------|-------------------------------|


  Gtrs III, IV
|-------------------------|---------------------------|
|-------------------------|---------------------------|
|-------------------------|---------------------------|
|-12----------------------|-(12)----------------------|
|--9----------------------|--(9)----------------------|
|--0----------------------|--(0)----------------------|
|
| Gtr I
|-------------------------|---------------------------|
|-------------------------|---------------------------|
|-------------------------|---------------------------|
|-12-12----12-12-12----12-|--12--12----12-12-12----12-|
|--9--9-----9--9--9-----9-|---9---9-----9--9--9-----9-|
|--0--0-----0--0--0-----0-|---0---0-----0--0--0-----0-|
|
|-------14----------14----|---------14----------14----|
|-------------------------|---------------------------|
|-------------------------|---------------------------|
|-------16----------16----|---------16----------16----|
|-------------------------|---------------------------|
|-------------------------|---------------------------|


|-------------------------|---------------------------|
|-------------------------|---------------------------|
|-------------------------|---------------------------|
|-12----------------------|-(12)----------------------|
|--9----------------------|--(9)----------------------|
|--0----------------------|--(0)----------------------|
|
|-------------------------|---------------------------|
|-------------------------|---------------------------|
|-------------------------|---------------------------|
|-12-12----12-12-12----12-|--12--12----12-12-12----12-|
|--9--9-----9--9--9-----9-|---9---9-----9--9--9-----9-|
|--0--0-----0--0--0-----0-|---0---0-----0--0--0-----0-|
|
|-------14----------14----|---------14----------14----|
|-------------------------|---------------------------|
|-------11----------11----|---------11----------11----|
|-------------------------|---------------------------|
|-------------------------|---------------------------|
|-------------------------|---------------------------|


  (D)
|-------------------------|---------------------------|
|-------------------------|---------------------------|
|-------------------------|---------------------------|
|-12----------------------|-(12)----------------------|
|--9----------------------|--(9)----------------------|
|--0----------------------|--(0)----------------------|
|
|-------------------------|---------------------------|
|-------------------------|---------------------------|
|-------------------------|---------------------------|
|-12-12----12-12-12----12-|--12--12----12-12-12----12-|
|--9--9-----9--9--9-----9-|---9---9-----9--9--9-----9-|
|--0--0-----0--0--0-----0-|---0---0-----0--0--0-----0-|
|
|-------14----------14----|---------14----------14----|
|-------------------------|---------------------------|
|-------11----------11----|---------11----------11----|
|-------------------------|---------------------------|
|-------------------------|---------------------------|
|-------------------------|---------------------------|


|---------|---------*|
|---------|---------*|
|---------|---------*|
|-12------|-(12)----*|
|--9------|--(9)----*|
|--0------|--(0)----*|
|
|---------|---------*|
|---------|---------*|
|---------|---------*|
|-12------|-(12)----*|
|--9------|--(9)----*|
|--0------|--(0)----*|
|
|-14------|-(14)----*|
|---------|---------*|
|-11------|--11-----*|
|---------|---------*|
|---------|---------*|
|---------|---------*|
Comments