Sick Puppies - All The Same Chords & Tabs

 

All The Same Chords & Tabs

Sick Puppies Chords & Tabs

Version: 5 Type: Tab 0 ratings
1 star 2 stars 3 stars 4 stars 5 stars
comments

All The Same Tab

   
Intro

D|-------------|
A|-------------|
F|-------------|
C|-0-0-0-0-0-0-|
G|-0-0-0-0-0-0-|
C|-0-0-0-0-0-0-|

Verse

D|----------------------------------------------------|
A|----------------------------------------------------|
F|---------------------------4-4-4-4-4-4--------------|
C|-0-0-0-0-0-0--4-4-4-4-4-4--4-4-4-4-4-4--5-5-5-5-5-5-|
G|-0-0-0-0-0-0--4-4-4-4-4-4--2-2-2-2-2-2--5-5-5-5-5-5-| x2
C|-0-0-0-0-0-0--4-4-4-4-4-4---------------5-5-5-5-5-5-|

Pre Chorus

D|-----------|
A|-----------|
F|-7-7-7-7---|     <---[after three times let it ring out, makes it sound
C|-5-0-0-0---|          acoustic with electric adding the 7 on the F]
G|-5-0-0-0---|
C|-5-0-0-0---| x3

Chorus [The strumming isn't very hard, you figure out the strumming]

D|----------------------------------------------------------------|
A|-------------------------------------------------17-------------|
F|--------------------------11-9---14--16--18--19--x--------------| 
C|-12-11-12-11--9--7--9--7--x--x---x---x---x---x--14--------------|
G|-9--9--9--9---5--5--5--5--9--7--12--14--16--17------------------|
C|-9--9--9--9---5--5--5--5----------------------------------------| x2




Pre Solo
D|-------------------|
A|-------------------|
F|-------------------|
C|-5-5-5-5-5--5-5-5-5|
G|-5-5-5-5-5--5-5-5-5| <---- [Suddenly stop]
C|-5-5-5-5-5--5-5-5-5|

Solo

D|-----------------------------------------------------------------|
A|-7h8r7-5----------------------7h8r7-5----------------------------|
F|----------7-7-7/9-9-9/11-11-11--------6-6-6/7-7-7----------------|
C|--------------------------------------------------7-7-7----------|
G|-----------------------------------------------------------------|
C|-----------------------------------------------------------------|

[ Tab from: http://www.guitartabs.cc/tabs/s/sick_puppies/all_the_same_tab_ver_5.html ]
D|--------------------------------------|
A|-7h8r7-5-------7b--10bv---------------|
F|---------7-7-7------------------------|
C|--------------------------------------|
G|--------------------------------------|
C|--------------------------------------|


Rhythm over the solo


D|-----------------------------------------|
A|-----------------------------------------|
F|-7-7-7-7-7-7--9-9-9-9-9-9--7-7-7-7-7-7---|
C|-0-0-0-0-0-0--7-7-7-7-7-7--5-5-5-5-5-5---|
G|-0-0-0-0-0-0--7-7-7-7-7-7--5-5-5-5-5-5---| 
C|-0-0-0-0-0-0--7-7-7-7-7-7--5-5-5-5-5-5---|



Post Solo
D|-----------|
A|-----------|
F|-----------|
C|-5-0-0-0---|
G|-5-0-0-0---|
C|-5-0-0-0---| x3

Bridge

D|-----------------------------------------|
A|-----------------------------------------|
F|-7-7-7-7-7-7--9-9-9-9-9-9--7-7-7-7-7-7---|
C|-0-0-0-0-0-0--7-7-7-7-7-7--5-5-5-5-5-5---|
G|-0-0-0-0-0-0--7-7-7-7-7-7--5-5-5-5-5-5---| 
C|-0-0-0-0-0-0--7-7-7-7-7-7--5-5-5-5-5-5---|

D|-----------|
A|-----------|
F|-----------|
C|-5-0-0-0---|
G|-5-0-0-0---|
C|-5-0-0-0---|x3

D|-----------------------------------------|
A|-----------------------------------------|
F|-7-7-7-7-7-7--9-9-9-9-9-9--7-7-7-7-7-7---|
C|-0-0-0-0-0-0--7-7-7-7-7-7--5-5-5-5-5-5---|
G|-0-0-0-0-0-0--7-7-7-7-7-7--5-5-5-5-5-5---| 
C|-0-0-0-0-0-0--7-7-7-7-7-7--5-5-5-5-5-5---|

D|-----------|
A|-----------|
F|-----------|
C|-5-0-0-0---|
G|-5-0-0-0---|
C|-5-0-0-0---|x3

Then play the chorus again till the end

D|----------------------------------------------------------------|
A|-------------------------------------------------17-------------|
F|--------------------------11-9---14--16--18--19--x--------------| 
C|-12-11-12-11--9--7--9--7--x--x---x---x---x---x--14--------------|
G|-9--9--9--9---5--5--5--5--9--7--12--14--16--17------------------|
C|-9--9--9--9---5--5--5--5----------------------------------------| 

Theres an acoustic in parts throught the song. You can just 
play the chords in standard.

The chords are the exact same as the electric just in standard.
Just have a look at the chord tab of this on ug.


STRUCTURE
Intro
Verse
Pre Chorus
Chorus
Verse
Pre Chorus [Distortion, PM a little bit]   
Chorus
Pre Solo
Solo
Post Solo
Bridge
Chorus
Intro
Comments