Sick Puppies - All The Same Chords & Tabs

 

All The Same Chords & Tabs

Sick Puppies Chords & Tabs

Version: 1 Type: Tab 0 ratings
1 star 2 stars 3 stars 4 stars 5 stars
comments

All The Same Tab

Well I tried to tab the solo of this song, for me it sounds quiet good!
It is my first tab in the internet!

[ Tab from: http://www.guitartabs.cc/tabs/s/sick_puppies/all_the_same_tab.html ]
e|--------------------------|---------------------------------|
H|--6-----------------------|-6-------------------------------|
G|----9-7-5--5--7--7--9--9--|--9-7-4--4--5--5-0--0------------|
D|--------------------------|---------------------------------|
A|--------------------------|---------------------------------|
E|--------------------------|---------------------------------|


e|----------------------------------------------------------|
H|--6-------------------------------------------------------|
G|----9-7-5-9\7/9-12----------------------------------------|
D|----------------------------------------------------------|
A|----------------------------------------------------------|
E|----------------------------------------------------------|

\:slide down
/:slide up

I think thats it, i am not sure if it is correct but i think so!
Great song!
Comments