Sick Puppies - All The Same Chords & Tabs

 

All The Same Chords & Tabs

Sick Puppies Chords & Tabs

Version: 1 Type: Bass Tab 0 ratings
1 star 2 stars 3 stars 4 stars 5 stars
comments

All The Same Bass Tab

   
ok nobody tabbed the bassline for this song i just figured it out and tabbed it. its my 
tab so dont complain, but it sounds perfect to me.

song:all the same
band:sick puppies
tabbed by: steve the pirate
email for errors or requests or suggestions: steve_the_pirate@cox.net


G
D
A
C

mmk at the begining use ur fingers and play softly.
and...
the number of notes to play arent exact, so just adjust it to how you see fit.

after the first part that goes "i dont mind, i dont care, as long as you're here"....

C|0~~~~~~~---------------------------------------------------------------|


                               x2
G|-----------------------------------------------------------------------|
D|-----------------------------------------------------------------------|
A|-----------------------------------------------------------------------|
C|99999999999999999999999555555555555555555555555000000000000000000000000|

G|-----------------------------------------------------------------------|
D|-----------------------------------------------------------------------|
A|-----------------------------------------------------------------------|
C|777777777777777777777777-----------------------------------------------|

second time end with
C|7~~~~~-----------------------------------------------------------------|

then...
C|0~~~~~~----------------------------------------------------------------|

                               x2
G|-----------------------------------------------------------------------|
D|-----------------------------------------------------------------------|
A|-----------------------------------------------------------------------|
C|0--0--00----0--0--00----7--7--77----7--7--77----9--9--99----9--9--99---|

G|-----------------------------------------------------------------------|
D|-----------------------------------------------------------------------|
A|-----------------------------------------------------------------------|
C|-5--5--55----5--5--55--------------------------------------------------|

second time end with

C|5-5-5-5-5-5-5-5-5-5-5-5|

G|-----------------------------------------------------------------------|
D|-----------------------------------------------------------------------|
A|-----------------------------------------------------------------------|
C|5-0-0-----5-0-0---5-0-0-00-0-0-000000000000----------------------------|
[ Tab from: http://www.guitartabs.cc/tabs/s/sick_puppies/all_the_same_btab.html ]
                            x2
G|-----------------------------------------------------------------------|
D|-----------------------------------------------------------------------|
A|-----------------------------------------------------------------------|
C|99999999999999999999999555555555555555555555555000000000000000000000000|

G|-----------------------------------------------------------------------|
D|-----------------------------------------------------------------------|
A|-----------------------------------------------------------------------|
C|777777777777777777777777-----------------------------------------------|

G|-----------------------------------------------------------------------|
D|-----------------------------------------------------------------------|
A|-----------------------------------------------------------------------|
C|55-5-555-5-555-5-55----------------------------------------------------|

G|-----------------------------------------------------------------------|
D|-----------------------------------------------------------------------|
A|-----------------------------------------------------------------------|
C|00-0-000-0-000-0-000-0-0-77-7-777-7-777-7-777-7-7-55-5-555-5-555-5-555-|

C|5-5-5-0-0-0-5-0-0-0-5-0-0-0-0|

                                x2
G|-----------------------------------------------------------------------|
D|-----------------------------------------------------------------------|
A|-----------------------------------------------------------------------|
C|00000000000000000000000077777777777777777777777755555555555555555555555|

G|-----------------------------------------------------------------------|
D|-----------------------------------------------------------------------|
A|-----------------------------------------------------------------------|
C|5-0-0-0-5-0-0-0-5-0-0-0------------------------------------------------|

                            x2
G|-----------------------------------------------------------------------|
D|-----------------------------------------------------------------------|
A|-----------------------------------------------------------------------|
C|99999999999999999999999555555555555555555555555000000000000000000000000|

                           pause

G|-----------------------------------------------------------------------|
D|-----------------------------------------------------------------------|
A|-----------------------------------------------------------------------|
C|777777777777777777777777-----------------------------------------------|

play that two more times and end on C|0~~~~----|

so, just rate it, and email me if you found errors.
Comments