Sick Of It All - World Full Of Hate Chords & Tabs

 

World Full Of Hate Chords & Tabs

Sick Of It All Chords & Tabs

Version: 1 Type: Tab 0 ratings
1 star 2 stars 3 stars 4 stars 5 stars
comments

World Full Of Hate Tab

------------------------------------------------------------------------------- 
                  WORLD FULL OF HATE - Sick Of It All 
------------------------------------------------------------------------------- 

By: Punk Rock Bob ( Mickey_Mouse_Is_Dead@punkhardcore.net ) 

INTRO/VERSE 
e|---------------------------------------------------------------------------| 
B|---------------------------------------------------------------------------| 
G|---------------------------------------------------------------------------| 
D|--2222-5555-2222-3333-2222-5555-2222-5-7-5---------------------------------| 
A|--2222-5555-2222-3333-2222-5555-2222-5-7-5---------------------------------| 
E|--0000-3333-0000-1111-0000-3333-0000-3-5-3---------------------------------| 
[ Tab from: http://www.guitartabs.cc/tabs/s/sick_of_it_all/world_full_of_hate_tab.html ]
CHORUS 
e|---------------------------------------------------------------------------| 
B|---------------------------------------------------------------------------| 
G|---------------------------------------------------------------------------| 
D|--2------------55-5-7-5----------------------------------------------------| 
A|--2--LET RING--55-5-7-5----------------------------------------------------| 
E|--0------------33-3-5-3----------------------------------------------------| 

AFTER-CHORUS PART (BRIDGE?) 
e|---------------------------------------------------------------------------| 
B|---------------------------------------------------------------------------| 
G|---------------------------------------------------------------------------| 
D|--22-55-22-5-7-8-7---------------------------------------------------------| 
A|--22-55-22-5-7-8-7---------------------------------------------------------| 
E|--00-33-00-3-5-6-5---------------------------------------------------------| 

OUTRO 
e|---------------------------------------------------------------------------| 
B|---------------------------------------------------------------------------| 
G|---------------------------------------------------------------------------| 
D|--5-7-5-2------------------------------------------------------------------| 
A|--5-7-5-2------------------------------------------------------------------| 
E|--3-5-3-0------------------------------------------------------------------| 

-------------------------------------------------------------------------------
Comments