Sick Of It All - The Future Is Mine Chords & Tabs

 

The Future Is Mine Chords & Tabs

Sick Of It All Chords & Tabs

Version: 1 Type: Tab 0 ratings
1 star 2 stars 3 stars 4 stars 5 stars
comments

The Future Is Mine Tab

------------------------------------------------------------------------------- 
                 THE FUTURE IS MINE - Sick Of It All 
------------------------------------------------------------------------------- 

Tabbed by GxCx 

standard tuning [EADGBE] 

Intro 
e|------------------------------------------------ 
B|------------------------------------------------ 
G|-0-0-0-0-0-0-0-0-0-0-0-0-0-0-0-0-0-0-(and so on) 
D|------------------------------------------------ 
A|------------------------------------------------ 
E|------------------------------------------------ 

Chorus 
e|--------------- 
B|--------------- 
G|---------7---5- 
D|-5-5-5-5-5---5- 
A|-5-5-5-5-5---3- 
E|-3-3-3-3------- 
[ Tab from: http://www.guitartabs.cc/tabs/s/sick_of_it_all/the_future_is_mine_tab.html ]
Verse 
e|---------------------------------------- 
B|---------------------------------------- 
G|-10--------9---7---7-9-10--------------- 
D|-10---10---9---7---7-9-10---10---7---5-- 
A|--8---10---7---5---5-7--8---10---7---5-- 
E|-------8---------------------8---5---3-- 

e|------------------------------------ 
B|------------------------------------ 
G|-10--------9---7---7-9-10----------- 
D|-10---10---9---7---7-9-10---10---5-- 
A|--8---10---7---5---5-7--8---10---5-- 
E|-------8---------------------8---3-- 

Slow part 
e|------------------------------------------------ 
B|------------------------------------------------ 
G|-0-0-0-0-0-0-0-0-0-0-0-0-0-0-0-0-0-0-(and so on) 
D|------------------------------------------------ 
A|------------------------------------------------ 
E|------------------------------------------------ 

-------------------------------------------------------------------------------
Comments