Sick Of It All - Step Down Chords & Tabs

 

Step Down Chords & Tabs

Sick Of It All Chords & Tabs

Version: 3 Type: Tab 0 ratings
1 star 2 stars 3 stars 4 stars 5 stars
comments

Step Down Tab

------------------------------------------------------------------------------- 
                     STEP DOWN - Sick of it All 
------------------------------------------------------------------------------- 

By:Hans werner (hwerner@punkhardcore.net) 

G|----------------------------------------------------------------------| 
D|----------------------------------------------------------------------| 
A|-------5-333333-6666666-5555555-0-------------------------------------| 
E|-33333----------------------------------------------------------------| 

e|----------------------------------------------------------------------| 
B|----------------------------------------------------------------------| 
G|----------------------------------------------------------------------| 
D|---55555-7--555555-888888888-7777777----------------------------------| 
A|---55555-5--333333-666666666-5555555----------------------------------| 
E|---33333-5-------------------5555555----------------------------------| 
[ Tab from: http://www.guitartabs.cc/tabs/s/sick_of_it_all/step_down_tab_ver_3.html ]
e|----------------------------------------------------------------------| 
B|----------------------------------------------------------------------| 
G|----------------------------------------------------------------------| 
D|----------------------------------------------------------------------| 
A|-xxxxxxxxxxxxxx-------------------------------------------------------| 
E|-xxxxxxxxxxxxxx-------------------------------------------------------| 

e|----------------------------------------------------------------------| 
B|----------------------------------------------------------------------| 
G|----------------------------------------------------------------------| 
D|-555555555--88888888888888--------------------------------------------| 
A|-333333333--66666666666666----9/12-----12----------xx-----------------| 
E|-333333333--66666666666666--------0------0---------xx-----------------| 

e|-------------------------|--------------------------------------------| 
B|-------------------------|--------------------------------------------| 
G|-77-910-10109-5555797----|-77-910-10109-5555797-----------------------| 
D|-77-910-10109-5555797----|-77-910-10109-5555797-----------------------| 
A|-55-78--88887-3333575----|-55-78--88887-3333575-----------------------| 
E|-------------------------|-55-78--88887-3333575-----------------------| 

otherr then some small riffs, this is perfect 

-------------------------------------------------------------------------------
Comments