Sick Of It All - No Cure Chords & Tabs

 

No Cure Chords & Tabs

Sick Of It All Chords & Tabs

Version: 1 Type: Tab 0 ratings
1 star 2 stars 3 stars 4 stars 5 stars
comments

No Cure Tab

------------------------------------------------------------------------------- 
                       NO CURE - SICK OF IT ALL 
------------------------------------------------------------------------------- 

By:Jon Wong: jkwong@pixi.com 

INTRO: 
e|--------------------------------------------------------------------| 
B|--------------------------------------------------------------------| 
G|--------------------------------------------------------------------| 
D|--------------------------------------------------------------------| 
A|-4-4--7-7-7--4-4-7-7-7----------------------------------------------| 
E|-2-2--5-5-5--2-2-5-5-5----------------------------------------------| 

VERSE: 
e|--------------------------------------------------------------------| 
B|--------------------------------------------------------------------| 
G|--------------------------------------------------------------------| 
D|-6-6-6-6-9-9-9-9-7-7-7-7--------------------------------------------| 
A|-4-4-4-4-7-7-7-7-5-5-5-5--------------------------------------------| 
E|--------------------------------------------------------------------| 
[ Tab from: http://www.guitartabs.cc/tabs/s/sick_of_it_all/no_cure_tab.html ]
CHORUS: 
e|--------------------------------------------------------------------| 
B|--------------------------------------------------------------------| 
G|--------------------------------------------------------------------| 
D|-----------2-2---2-----------------2-2---2-2-----2-2----------------| 
A|-4-4-4-7-5-2-2-5-2-------4-4-4-7-5-2-2-5-2-2-5-4-2-2-5--------------| 
E|-2-2-2-5-3-0-0-3-0---x3--2-2-2-5-3-0-0-3-0-0-3-2-0-0-3--------------| 

BRIDGE: 
e|--------------------------------------------------------------------| 
B|--------------------------------------------------------------------| 
G|--------------------------------------------------------------------| 
D|-----2----X--X--X------2----X--X--X------2---X-X-X------------------| 
A|-5-4-2-4--X--X--X--5-4-2-4--X--X--X--5-4-2-4-X-X-X------------------| 
E|-3-2-0-2--X--X--X--3-2-0-2--X--X--X--3-2-0-2-X-X-X------------------| 

e|--------------------------------------------------------------------| 
B|--------------------------------------------------------------------| 
G|--------------------------------------------------------------------| 
D|-----2-7-7-7--2-2-9-9-9---------2----X-X-X--------------------------| 
A|-5-4-2-5-5-5--2-2-7-7-7-----5-4-2--4-X-X-X--------------------------| 
E|-3-2-0--------0-0-----------3-2-0--2-X-X-X--------------------------| 

=============================================================================
Comments