Sick Of It All - My Revenge Chords & Tabs

 

My Revenge Chords & Tabs

Sick Of It All Chords & Tabs

Version: 1 Type: Bass Tab 0 ratings
1 star 2 stars 3 stars 4 stars 5 stars
comments

My Revenge Bass Tab

------------------------------------------------------------------------------- 
                      MY REVENGE - Sick Of It All 
------------------------------------------------------------------------------- 

By: Punk Rock Bob ( Mickey_Mouse_Is_Dead@punkhardcore.net ) 

INTRO (part before stars x 4 then move on) 
G|-------------*-------------------------------------------------------------| 
D|-------------*-------------------------------------------------------------| 
A|------7-6666-*-------------------------------------------------------------| 
E|--555--------*--5555-8--4-4-4-44-4-----------------------------------------| 
[ Tab from: http://www.guitartabs.cc/tabs/s/sick_of_it_all/my_revenge_btab.html ]
VERSE 
G|---------------------------------------------------------------------------| 
D|---------------------------------------------------------------------------| 
A|-----7777------------------------------------------------------------------| 
E|--55------55---------------------------------------------------------------| 

CHORUS 
G|---------------------------------------------------------------------------| 
D|---------------------------------------------------------------------------| 
A|--77777777-----------------------------------------------------------------| 
E|---------------------------------------------------------------------------| 

OUTRO? 
G|---------------------------------------------------------------------------| 
D|---------------------------------------------------------------------------| 
A|--0000-----------33-22-----------------------------------------------------| 
E|-------1111-3333-----------------------------------------------------------| 

-------------------------------------------------------------------------------
Comments