Sick Of It All - Martin Chords & Tabs

 

Martin Chords & Tabs

Sick Of It All Chords & Tabs

Version: 1 Type: Tab 0 ratings
1 star 2 stars 3 stars 4 stars 5 stars
comments

Martin Tab

   
------------------------------------------------------------------------------ 
                         MARTIN - Sick Of It All 
------------------------------------------------------------------------------ 

By:alien@punkhardcore.net 

intro 
e|----------------------| 
B|----------------------| 
G|------------3-5-5-5-5-| 
D|-4-4-4-6--7-3-5-5-5-5-| 
A|-4-4-4-6--7-1-3-3-3-3-| 
E|-2-2-2-4--5-----------| x3 

intro end 
e|---------------------------| 
B|---------------------------| 
G|-4-4-4-4--4-4-4-4-4-4-4-4--| 
D|-4-4-4-4--4-4-4-4-4-4-4-4--| 
A|-2-2-2-2--2-2-2-2-2-2-2-2--| 
E|---------------------------| 

verse 
e|-------------------------------| 
B|-------------------------------| 
G|-------------------------------| 
D|-4-2--4-2--4-2-4-2-4-2---5-5---| 
A|-4-2--4-2--4-2-4-2-4-2---5-5---| 
E|-2-0--2-0--2-0-2-0-2-0---3-3---| x8 

e|-------| 
B|-------| 
G|-------| 
D|-4-4-4-| 
A|-4-4-4-| 
E|-2-2-2-| x3 
[ Tab from: http://www.guitartabs.cc/tabs/s/sick_of_it_all/martin_tab.html ]
pick scratch 

chorus 
e|----------------------------------------------------| 
B|----------------------------------------------------| 
G|----------------------------------------------------| 
D|-6-6--6-6-6-6---2-2--2-2-2--------------------------| 
A|-6-6--6-6-6-6---2-2--2-2-2--------------------------| 
E|-4-4--4-4-4-4---0-0--0-0-0-----4-5-4--4-5--4-5-4-0--| x2 

e|----------------------------------------------------| 
B|----------------------------------------------------| 
G|-------------------------------4-4-4-4--5-5-5-5-----| 
D|-6-6--6-6-6-6---2-2--2-2-2-----4-4-4-4--5-5-5-5-----| 
A|-6-6--6-6-6-6---2-2--2-2-2-----2-2-2-2--3-3-3-3-----| 
E|-4-4--4-4-4-4---0-0--0-0-0--------------------------| x2 

then: 
intro+intro end 
verse (3rd bar harmonic bit) 
chorus 
intro x12 
intro end 

most of this is right, but i know some bits arent so mail me if you work them out 

-------------------------------------------------------------------------------
Comments