Sick Of It All - Let Go Chords & Tabs

 

Let Go Chords & Tabs

Sick Of It All Chords & Tabs

Version: 1 Type: Tab 0 ratings
1 star 2 stars 3 stars 4 stars 5 stars
comments

Let Go Tab

   
------------------------------------------------------------------------------- 
                         LET GO - Sick Of It All 
------------------------------------------------------------------------------- 

By: Cody B. elcujo_is_a@hardcorefreak.com 

Verse Part 1 
e|-------------------------------| 
B|-------------------------------| 
G|-12-9-9-9-12-9-9-9-------------| 
D|-12-9-9-9-12-9-9-9-------------| 
A|-10-7-7-7-10-7-7-7-11-11-11-11-| 
E|-------------------9--9--9--9--| 

Verse Part 2 
e|-----------------| 
B|-----------------| 
G|-----------------| 
D|-5-5-5-5-9-9-9-9-| 
A|-5-5-5-5-9-9-9-9-| 
E|-3-3-3-3-7-7-7-7-| 
[ Tab from: http://www.guitartabs.cc/tabs/s/sick_of_it_all/let_go_tab.html ]
Interlude 
e|---| 
B|---| 
G|---| x4 
D|-2-| 
A|-2-| 
E|-0-| 

Other Part After 4th time 
e|-------------|   |-------|
B|-------------|   |-------|
G|-------------| + |-------|
D|-2-5-4-5-6-7-|   |-9-9-9-|
A|-2-5-4-5-6-7-|   |-9-9-9-| 
E|-0-3-2-3-4-5-|   |-7-7-7-|

Outro 
e|-----------------------------------------------|
B|-----------------------------------------------|
G|-------------------------7-7-7-7-9-9-9-9-------|
D|-2-2-2-2-5-5-5-5-9-9-9-9-7-7-7-7-9-9-9-9-5-5-2-|
A|-2-2-2-2-5-5-5-5-9-9-9-9-5-5-5-5-7-7-7-7-5-5-2-|
E|-0-0-0-0-3-3-3-3-7-7-7-7-----------------3-3-0-|

-------------------------------------------------------------------------------
Comments