Sick Of It All - Let Go Chords & Tabs

 

Let Go Chords & Tabs

Sick Of It All Chords & Tabs

Version: 1 Type: Bass Tab 0 ratings
1 star 2 stars 3 stars 4 stars 5 stars
comments

Let Go Bass Tab

Song: Let Go
Artist: SICK OF IT ALL
Album: CALL TO ARMS
Tabbed by R. Camacho (symptom7@excite.com)


  Gtr intro	   	        (Play 3X)	
G[-----------------]---------------------]------------------]
D[-----------------]-5-2-22-2-5-2--------]------------------]
A{-----------------]--------------4444---]------2222--------]
E[----7/12\--------]---------------------]-3333-------------]

              (Play 3X)      *sudden stop         Gtr. Break
G[---------------------]-----------------]------------------]
D[-5-2-22-2-5-2--------]-----------------]------------------]
A{--------------4444---]------2*---------]------------------]
E[---------------------]-3333------------]-------12\--------]
[ Tab from: http://www.guitartabs.cc/tabs/s/sick_of_it_all/let_go_btab.html ]
            (Play 1X)                      (Play 3X) *sdn stop
G[-------------------]-----------]------------------]---------]
D[-5-2-22-2-5-2------]-----------]-5-2-22-2-5-2-----]---------]
A{--------------4444-]------2222-]--------------4444]------2*-]
E[-------------------]-3333------]------------------]-3333----]

 Bridge                 (Play 8X)         *(Play 16X)**(Play 8X)
G[-------------------------------]-------]---------------------]
D[-------------------------------]-------]---------------------]
A[-------------------------------]-2-2-2-]-------2**-5**-------]
E[-0-0-0-3-0-0-2-0-0-3-0-0-3-0-5-]-------]-0*-3*---------------]        

                *Sudden Stop
G[-------------------------------------------------------------]
D[-5-2-22------------------------------------------------------]
A{-------------------------------------------------------------]
E[--------3333-0*----------------------------------------------]

Comments