Sick Of It All - Just Look Around Chords & Tabs

 

Just Look Around Chords & Tabs

Sick Of It All Chords & Tabs

Version: 1 Type: Tab 0 ratings
1 star 2 stars 3 stars 4 stars 5 stars
comments

Just Look Around Tab

------------------------------------------------------------------------------- 
                    JUST LOOK AROUND - Sick Of It All 
------------------------------------------------------------------------------- 

By: Bev O'Maley (kdomaley@hotmail.com) 

Bass Intro: 
e|---------------------------------| 
B|---------------------------------| 
G|---------------------------------| 
D|---------------------------------| 
A|-----2------3------5------3-2----| 
E|--0-----0------0-------0------3-2| 

Guitar Intro: 
e|-------------------------------------------| 
B|-------------------------------------------| 
G|-------------------------------------------| 
D|---------------3--3--3--3--3---------------| 
A|--5/////7-(?)--3--3--3--3--3---------------| 
E|---------------1--1--1--1--1---------------| 
slide(only the first time) let the last F ring out 
[ Tab from: http://www.guitartabs.cc/tabs/s/sick_of_it_all/just_look_around_tab.html ]
Chorus Guitar 
e|-------------------------------------------| 
B|-------------------------------------------| 
G|-------------------------------------------| 
D|--2--2----2-2----2-2----2-2----------------| 
A|--2--2----2-2----2-2----2-2-----3-2--------| 
E|--0--0----0-0----0-0----0-0---------3-2----| 

2nd and 3rd verse Guitar 
e|-------------------------------------------| 
B|-------------------------------------------| 
G|----4----5----7----------------------------| 
D|----4----5----7----3-2---------------------| 
A|----2----3----5--------3-2-----------------| 
E|----0----0----0----------------------------| 

Outro Guitar 
e|-------------------------------------------| 
B|-------------------------------------------| 
G|-------------------------------------------| 
D|-------------------------------------------| 
A|-----2------3------5------3-2--------------| 
E|--0-----0------0-------0------3-2----------| 


Bass Intro 6X (slide part of guitar intro over 5th and 6th time) 
Guitar & Bass Intros 4X (Guitar just the f5's) 
Bass Intro 4X (fourth time, guitar pick scrape) 
Guitar & Bass Intros 8X 
Chorus Guitar 4X 
Verse Guitar(over intro bass) 8X 
Chorus Guitar 4X 
Verse Guitar 8X 
Outtro Guitar 4X 

=============================================================================
Comments