Sick Of It All - Just Look Around Chords & Tabs

 

Just Look Around Chords & Tabs

Sick Of It All Chords & Tabs

Version: 1 Type: Bass Tab 0 ratings
1 star 2 stars 3 stars 4 stars 5 stars
comments

Just Look Around Bass Tab

Sick of it all
        -Just Look Around-
-------------------------------
Intro = Main riff:

G|----------------------|
D|----------------------|
A|---2---3--5---3-2-----|
E|-0---0--0---0-----3-2-|

riff 2:
[ Tab from: http://www.guitartabs.cc/tabs/s/sick_of_it_all/just_look_around_btab.html ]
G|----------------------|
D|----------------------|
A|-------------3-2------|
E|-0-0-0-0-0-0-----3-2--|

outro:
 PM all the notes that you play and just play the main riff 

comments? -> Bertdedecker1@hotmail.com
Comments