Sick Of It All - Insurrection Chords & Tabs

 

Insurrection Chords & Tabs

Sick Of It All Chords & Tabs

Version: 1 Type: Bass Tab 0 ratings
1 star 2 stars 3 stars 4 stars 5 stars
comments

Insurrection Bass Tab

   
------------------------------------------------------------------------------- 
                      INSURRECTION - Sick Of It All 
------------------------------------------------------------------------------- 

Tabbed by Alessandro Farini, bassist of Bad Habit. 

Comment: Great song full of energy and rage, great to play 
and to jump with...The tab should be 100% correct with some 
slight variations that I couldn't get and I didn't feel like to. 
Enjoy it. 

Part 1--play 4x-- 
G--------------------> 
D--------------------> 
A-2------------------> 
E---0-0-2-0-3-33333--> 

Part 2--play 6x-- 
(power for those...) 
G--------------------> 
D--------------------> 
A-2------------------> 
E---0-0-2-0-5-55555--> 

Part 3--play 4x-- 
(watcha' gonna do...) 
G--------------------> 
D--------------------> 
A--------------------> 
E-5555555-3----------> 

Part 4--play 1x-- 
G--------------------> 
D--------------------> 
A--------------------> 
E-555-4-222-1--------> 

Then play "Part 3" 4x and "Part 4" 1x, then: 
[ Tab from: http://www.guitartabs.cc/tabs/s/sick_of_it_all/insurrection_btab.html ]
Part 5--play 1x-- 
(no more joy in the...) 
G--------------------> 
D--------------------> 
A--------------------> 
E-000000000000000000-> 

Part 6--play 1x-- 
G--------------------> 
D--------------------> 
A-5-5--3300000-------> 
E--------------------> 

Part 7--play 1x-- 
(screaming from silence...) 
G--------------------> 
D--------------------> 
A--------------------> 
E-0-00-0-111111------> 

Part 8--play 1x-- 
G--------------------> 
D--------------------> 
A-7777-5-0000000-----> 
E--------------------> 

Then play "Part 7" once and "Part 8" once, one after the other, 
for totally 4 times: 
the fourth time instead of playing "Part 8" play "Part 6" once. 
Then play: 

Part 9--play 4x-- 
(in the commotion...) 
G------------------------> 
D------------------------> 
A------------------------> 
E-2-222-222-222-0-3-3333-> 

Then play "Part 2" 7x, "Part 3" 3-4x and finally "Part 4" once. 

That's it. SOIA rules. 
Questions and corrections, e-mail me at badhabit@jumpy.it 

-------------------------------------------------------------------------------
Comments