Sick Of It All - Goatles Chords & Tabs

 

Goatles Chords & Tabs

Sick Of It All Chords & Tabs

Version: 1 Type: Tab 0 ratings
1 star 2 stars 3 stars 4 stars 5 stars
comments

Goatles Tab

------------------------------------------------------------------------------- 
                     GOATLES - Sick Of It All 
------------------------------------------------------------------------------- 

BY DJOLE fatdjole@ptt.yu 

Intro 
E|----------------------------------------------------------------- 
B|----------------------------------------------------------------- 
C|----------------------------------------------------------------- 
D|--2-2-2-2--3--4---2-2-2-2--3--4---2-2-2-2--3--4---2-2-2-2--3--4-- 
A|--2-2-2-2--3--4---2-2-2-2--3--4---2-2-2-2--3--4---2-2-2-2--3--4-- 
E|--0-0-0-0--1--2---0-0-0-0--1--2---0-0-0-0--1--2---0-0-0-0--1--2-- 

Verse + Chorus 
E|----------------------------------------------------------------- 
B|----------------------------------------------------------------- 
C|----------------------------------------------------------------- 
D|--9-9-9--2-2-2--10-10-10--12-12-12---9-9-9-9-10-9--7--7-7-7-7---- |x2 
A|--7-7-7--2-2-2--8--8--8---10-10-10---7-7-7-7-8--7--5--7-7-7-7----/ 
E|---------0-0-0----------------------------------------5-5-5-5---- 

E|----------------------------------------------------------------- 
B|----------------------------------------------------------------- 
C|----------------------------------------------------------------- 
D|--9-9-9--7-7-7--10-10-10--12-12-12--9-9-9-10-9--7--7-7-7-7------- 
A|--7-7-7--5-5-5--8--8--8---10-10-10--7-7-7-8--7--5--7-7-7-7------- 
E|---------------------------------------------------5-5-5-5------- 
[ Tab from: http://www.guitartabs.cc/tabs/s/sick_of_it_all/goatles_tab.html ]
E|----------------------------------------------------------------- 
B|----------------------------------------------------------------- 
C|----------------------------------------------------------------- 
D|--9-9-9--2-2-2--10-10-10--12-12-12---9-9-9-9-10-9--7--7-7-7-7---- 
A|--7-7-7--2-2-2--8--8--8---10-10-10---7-7-7-7-8--7--5--7-7-7-7---- 
E|---------0-0-0----------------------------------------5-5-5-5---- 

E|----------------------------------------------------------------- 
B|----------------------------------------------------------------- 
C|----------------------------------------------------------------- 
D|--7--9-9-9-9--7--10-10-10-10---7--9-9-9-9--7--10-10-10-10-------- 
A|--5--7-7-7-7--5--8--8--8--8----5--7-7-7-7--5--8--8--8--8--------- 
E|----------------------------------------------------------------- 

E|------------------------------- ----------------------------- 
B|------------------------------- ----------------------------- 
C|-------------------------------\ ---------------------------- 
D|--2-2-2--7--10---2-2-2--7--10-- |x2 --5---2-2-2-2--3--4------ 
A|--2-2-2--5--8----2-2-2--5--8---/ --5---2-2-2-2--3--4--------- 
E|--0-0-0----------0-0-0--------- --3---0-0-0-0--1--2---------- 

Verse + Chorus -> 

Outro 
E|---------------------------------------------------------
B|---------------------------------------------------------
C|---------------------------------------------------------\
D|--2-2-2-2--3--4------------------------------------------ |
A|--2-2-2-2--3--4------------------------------------------/
E|--0-0-0-0--1--2------------------------------------------

-------------------------------------------------------------------------------
Comments