Sick Of It All - District Chords & Tabs

 

District Chords & Tabs

Sick Of It All Chords & Tabs

Version: 1 Type: Tab 0 ratings
1 star 2 stars 3 stars 4 stars 5 stars
comments

District Tab

-------------------------------------------------------------------------------
			     district - sick of it all
-------------------------------------------------------------------------------

Tabbed by: luke cerri
Email: l_cerri@hotmail.com

Tuning: normal tuning
 dont play anything at the begining because its just the drums & bass
 but when thats finished start playing this

e|---------------------------------------------------------------------------
B|---------------------------------------------------------------------------
G|---------------------------------------------------------------------------
D|-555--888--666--55555555--888--666-----------------------------------------
A|-555--888--666--55555555--888--666-----------------------------------------
E|-555--888--666--55555555--888--666---cary on playing this through the verse
pm ==================================
''districs burning to the ground'' 
e|---------------------------------------------------------------------------
B|---------------------------------------------------------------------------
G|---------------------------------------------------------------------------
D|-1-0000--xx--1-0000--xx--1-0000--xx-1-0000---------------------------------
A|-1-0000--xx--1-0000--xx--1-0000--xx-1-0000---------------------------------
E|-1-0000--xx--1-0000--xx--1-0000--xx-1-0000---------------------------------

''now the choice is up to us''
e|--------------------------------------------------------------------------
B|--------------------------------------------------------------------------
G|--5--------5--------5-----5--5--------------------------------------------
D|--5--------5--------5-----5--5--------------------------------------------
A|--5--------5--------5-----5--5--------------------------------------------
E|--------------------------------------------------------------------------

e|---------------------------------------------------------------------------|
B|---------------------------------------------------------------------------|
G|---------------------------------------------------------------------------|
D|-555--888--666-55555555-888-666-555----------------------------------------|
A|-555--888--666-55555555-888-666-555----------------------------------------|
E|-555--888--666-55555555-888-666-555------repeat this ----------------------|
pm ==================================
after this do this the chorus
e|---------------------------------------------------------------------------|
B|---------------------------------------------------------------------------|
G|---------------------------------------------------------------------------|
D|-5------8----2----5----8----2---5------------------------------------------|
A|-5------8----2----5----8----2---5------------------------------------------|
E|-5------8----2----5----8----2---5-----repeat this until chorus ends--------|
[ Tab from: http://www.guitartabs.cc/tabs/s/sick_of_it_all/district_tab.html ]
then its just the guitar on its oun doing this
e|---------------------------------------------------------------------------|
B|---------------------------------------------------------------------------|
G|---------------------------------------------------------------------------|
D|--555--888--666---55555555--888--666--555-----repeat this------------------|
A|--555--888--666---55555555--888--666--555----------------------------------|
E|--555--888--666---55555555--888--666--555------''locked up''---------------|
pm ==========================================
e|---------------------------------------------------------------------------|
B|---------------------------------------------------------------------------|
G|---------------------------------------------------------------------------|
D|-1-0000-xx-1-0000-xx-1-0000-xx-1-0000--------------------------------------|
A|-1-0000-xx-1-0000-xx-1-0000-xx-1-0000--------------------------------------|
E|-1-0000-xx-1-0000-xx-1-0000-xx-1-0000--------------------------------------|

e|-------3-------2-------1--------------------------------------------------|
B|-------3-------2-------1--------------------------------------------------|
G|-------3-------2-------1--------------------------------------------------|
D|----------------------------1-0-1-0-000-----------------------------------|
A|----------------------------1-0-1-0-000-----------------------------------|
E|-1-000---1-000---1-000------1-0-1-0-000-----------------------------------|

CRIMINAL!
e|---------------------------------------------------------------------------|
B|---------------------------------------------------------------------------|
G|---------------------------------------------------------------------------|
D|-1-00-1-0-1-0-1-3333-----------------------------10111113------------------|
A|-1-00-1-0-1-0-1-3333-----------------------------10111113------------------|
E|-1-00-1-0-1-0-1-3333---------repeat this--then---10111113------------------|

PURIFIED!
e|---------------------------------------------------------------------------|
B|---------------------------------------------------------------------------|
G|---------------------------------------------------------------------------|
D|---------------------------------------------------------------------------|
A|---------------------------------------------------------------------------|
E|--DO THE SAME AS THE CRIMINAL BIT------------------------------------------|

WHEN PURIFIED STOPS DO THIS
e|---------------------------------------------------------------------------|
B|---------------------------------------------------------------------------|
G|---------------------------------------------------------------------------|
D|-1-0-1-0-xx-1-0-1-0-xx-1-0-1-0-xx-11111------------------------------------|
A|-1-0-1-0-xx-1-0-1-0-xx-1-0-1-0-xx-11111------------------------------------|
E|-1-0-1-0-xx-1-0-1-0-xx-1-0-1-0-xx-11111------------------------------------|

''someday a real rain is gonna come''
e|---------------------------------------------------------------------------|
B|---------------------------------------------------------------------------|
G|---------------------------------------------------------------------------|
D|-5---8-----2-----5-----8-----2-----5---------------------------------------|
A|-5---8-----2-----5-----8-----2-----5---------------------------------------|
E|-5---8-----2-----5-----8-----2-----5--------repeat this until chorus ends--|

then do this for the outro
e|---------------------------------------------------------------------------|
B|---------------------------------------------------------------------------|
G|---------------------------------------------------------------------------|
D|-555-888-666-55555555-888-666-55555555-888-666-55555555-888-666-555--------|
A|-555-888-666-55555555-888-666-55555555-888-666-55555555-888-666-555--------|
E|-555-888-666-55555555-888-666-55555555-888-666-55555555-888-666-555--------|
pm ===================================================================
e|---------------------------------------------------------------------------|
B|---------------------------------------------------------------------------|
G|---------------------------------------------------------------------------|
D|---------------------------------------------------------------------------|
A|---------------------------------------------------------------------------|
E|--then do the same as above but not palm muted until the song ends---------|
Comments