Sick Of It All - Cease Fire Chords & Tabs

 

Cease Fire Chords & Tabs

Sick Of It All Chords & Tabs

Version: 1 Type: Bass Tab 0 ratings
1 star 2 stars 3 stars 4 stars 5 stars
comments

Cease Fire Bass Tab

Cease fire(intro) - Sick of it all
-----------------------------------
Tabbed by : 's.o.h.' Bert
I'm sorry,i couldn't find the rest of the song. I hope you'll
be pleased with only the 'intro'
[ Tab from: http://www.guitartabs.cc/tabs/s/sick_of_it_all/cease_fire_btab.html ]
G|-----9-7-6h7-6h7-6----|-----9-7-6-6-6-6-6-|
D|-7-7---------------7--|-7-7---------------|
A|-0-0---------------0--|-0-0---------------|
E|----------------------|-------------------|

G|-----9-7-6h-6h7-6-----5-5-5-5-5-5-5-5-5-|
D|-7-7--------------7-9-5-5-5-5-5-5-5-5-5-|
A|-0-0--------------0---------------------|
E|----------------------------------------|
Comments