Sick Of It All - Blown Away Chords & Tabs

 

Blown Away Chords & Tabs

Sick Of It All Chords & Tabs

Version: 1 Type: Bass Tab 0 ratings
1 star 2 stars 3 stars 4 stars 5 stars
comments

Blown Away Bass Tab

------------------------------------------------------------------------------- 
                     BLOWN AWAY - Sick Of It All 
------------------------------------------------------------------------------- 

Tabbed By Sadel 
email: dervid85@hotmail.com 
icq: 10102197 

Notes: It was a bit tricky to find the bass 'cause it was drowned in the guitar, so it wouldn't
surprise me if what I've tabbed is very similar to what the guitar plays. Anyway, if this is
tab is correct, which I think it is, it's not hard to play. Also note that I've tabbed it
in dropped D tuning, it sounds so darker that way. This tab is dedicated a
bassplayer in Italy and my friends in Sweden. We're all 16 man!!! 

Intro for guitar, I don't think bass joins here. Mark that guitar uses echo effects. 

G|---------------------------------------| 
D|----------------------------------3-3--| 
A|----------------1-1-------5-5----------| 
D|--2--2---------------------------------| 

Drums and bass comes in here....00:12 

G|-----------------------| 
D|-----------------------| 
A|-----------------------| 
D|--0-2-x-2-x-2-2-x-2-2--| x3 

The main riff can be played this way too, that goes with guitar would be like this: 

G|--------------------| 
D|--------------------| 
A|--------------------| 
D|--5\2-x-2-2-x-2--2--| 

Play this lick one time, guitar plays something like this too. 

G|-------------------------| 
D|-------------------------| 
A|-------------------------| 
D|--2--2-2h5-2h5-2h5-2--4--| 

Then back to main riff....00:20 

G|-----------------------| 
D|-----------------------| 
A|-----------------------| 
D|--0-2-x-2-x-2-2-x-2-2--| x3 

....don't believe their empty lies....00:27 

G|-----------| 
D|-----------| 
A|-----------| 
D|--2--PAUS--| 

....00:29.... 

G|-----------------------| 
D|-----------------------| 
A|-----------------------| 
D|--0-2-x-2-x-2-2-x-2-2--| x3 

Play the lick once 

G|-------------------------| 
D|-------------------------| 
A|-------------------------| 
D|--2--2-2h5-2h5-2h5-2--4--| 

....then comes another riff....00:38 

G|-------------------------------------------------------| 
D|-------------------------------------------------------| 
A|--2-2-2-2-2-2-2-2-3--3--------2-2-2-2-2-2-2-2-3--3-----| 
D|------------------------5---------------------------5--| 

G|-------------------------------------------------------| 
D|------------------------3---------------------------2--| 
A|--2-2-2-2-2-2-2-2-5--5--------2-2-2-2-2-2-2-2-5--5-----| 
D|-------------------------------------------------------| 

Now a little fill comes, play it determined, and make the notes short. 

G|----------------------| 
D|----------------------| 
A|----------------------| 
D|--2-2--2-2--2-2--2-2--| 

Main riff starts again....00:58 

G|-----------------------| 
D|-----------------------| 
A|-----------------------| 
D|--0-2-x-2-x-2-2-x-2-2--| x3 

G|-------------------------| 
D|-------------------------| 
A|-------------------------| 
D|--2--2-2h5-2h5-2h5-2--4--| 

....01:06.... 

G|-----------------------| 
D|-----------------------| 
A|-----------------------| 
D|--0-2-x-2-x-2-2-x-2-2--| x3 

....you can only save yourself....01:13 
[ Tab from: http://www.guitartabs.cc/tabs/s/sick_of_it_all/blown_away_btab.html ]
G|-----------| 
D|-----------| 
A|-----------| 
D|--2--PAUS--| 

G|-----------------------| 
D|-----------------------| 
A|-----------------------| 
D|--0-2-x-2-x-2-2-x-2-2--| x3 

A shorter version of the common lick, let the last E ring. 

G|----------------------| 
D|----------------------| 
A|----------------------| 
D|--2--2-2h5-2h5-2h5-2--| 

At 01:30 another long E comes and another one four seconds later, then the last at 01:38.... 

G|-----------------------| 
D|-----------------------| 
A|-----------------------| 
D|--2--------2--------2--| 

This part doesn't feel fully accurate, but it sounds pretty good to me, but I have a 
feeling that someone will find some errors here, I always find errors in others tabs 
so it's very good to let other see your tab and check them for errors, I'm 99,9 % sure 
that the other person will find errors....01:45.... 

G|---------------------------------------------------------------| 
D|---------------------------------------------------------------| 
A|----------------------------------0--------------2-2-2-3--3-3--| 
D|--0--2-2-2-2-2-2-2h5--2-2-2-2-2-2----2-2-2-2-2-2---------------| 

G|-------------------------------------------------------------| 
D|-------------------------------------------------------------| 
A|----------------------------------------------2--2-2-3--3-3--| 
D|--2-2-2-2-2-2-2h5--2-2-2-2-2-2h5--5-5-5-5-5-5----------------| 

G|---------------------------------------------------------------| 
D|---------------------------------------------------------------| 
A|----------------------------------0--------------2-2-2-3--3-3--| 
D|--0--2-2-2-2-2-2-2h5--2-2-2-2-2-2----2-2-2-2-2-2---------------| 

G|-------------------------------------------------------------| 
D|-------------------------------------------------------------| 
A|----------------------------------------------2--2-2-3--3-3--| 
D|--2-2-2-2-2-2-2h5--2-2-2-2-2-2h5--5-5-5-5-5-5----------------| 

Another riff....02:02.... 

G|-------------------------------| 
D|-------------------------------| 
A|--2-2-2-2-2-2-2-3--3-3-5--5-5--| 
D|-------------------------------| x3 

G|---------------------------| 
D|---------------------------| 
A|------------------5-5-5----| 
D|--2-2-2-2-2-2-2-2-------2--| 

The final riff....make it sound hard....02:10.... 

G|--------------------------------------------------------------| 
D|--------------------------------------------------------------| 
A|--------------------------------------------------------------| 
D|--2--2-2-2-2-2-2h5--2-2-2-2-2-2h5--2-2-2-2-2-2-2-2-2-2-2-2-2--| x3 

The last time this is played it's a little different. 

G|-----------------------------------------------------------------------| 
D|-----------------------------------------------------------------------| 
A|-----------------------------------------------------------------------| 
D|--2--2-2-2-2-2-2h5--2-2-2-2-2-2h5--5-5-5-5-5-5-5-5-5-5-5-3-3-3-2----2--| 

Thats all folks, I've been so fucking nice to you and tried to explain it in a nice way
so that you will understand, and look how long the tab became. Hell, a baby can learn how
I play it now. 

-------------------------------------------------------------------------------
Comments