Sick Of It All - America Chords & Tabs

 

America Chords & Tabs

Sick Of It All Chords & Tabs

Version: 1 Type: Tab 0 ratings
1 star 2 stars 3 stars 4 stars 5 stars
comments

America Tab

------------------------------------------------------------------------------- 
AMERICA - Sick Of It All
------------------------------------------------------------------------------- 

BY: Rick (H2ORick@webtv.net) 

Intro 
e|---------------------------------------| 
B|---------------------------------------| 
G|---------------------------------------| 
D|--6-6-6-66----------9-9-9-99-----------| 
A|--4-4-4-44-7-7-7-77-7-7-7-77-9-9-9-99--| 
E|-----------5-5-5-55----------7-7-7-77--| 

e|--------------------------------------| 
B|--------------------------------------| 
G|--------------------------------------| 
D|--6-6-6-66-----------2--2-2-2-2-2-2-2-| 
A|--4-4-4-44-7-7-7-77--2--2-2-2-2-2-2-2-| 
E|-----------5-5-5-55--0--0-0-0-0-0-0-0-| 
pm----------| 
[ Tab from: http://www.guitartabs.cc/tabs/s/sick_of_it_all/america_tab.html ]
Verse 
e|--------------------------------------| 
B|--------------------------------------| 
G|--------------------------------------| 
D|--9-7-6--6-7-9-7-6-66-7-9-77-9-77-999-| 
A|--7-7-7--7-7-7-7-7-77-7-7-77-7-77-777-| 
E|--------------------------------------| 

e|---------------------------------| 
B|---------------------------------| 
G|-------6-66-----9-9-9-9-9-9-9-9--| 
D|--7-77-6-66-9-9-9-9-9-9-9-9-9-9--| 
A|--7-77-4-44-9-9-7-7-7-7-7-7-7-7--| 
E|--5-55------7-7------------------| 
pm----------| 

Chorus 
x2 
e|----------|-------------------| 
B|----------|-------------------| 
G|-6-66-----|--6-66-----9-9-9-9-| 
D|-6-66-7-7-|--6-66-9-9-9-9-9-9-| 
A|-4-44-7-7-|--4-44-9-9-7-7-7-7-| 
E|------5-5-|-------7-7---------| 

Breakdown same as first part of intro. 

I don't know the solo, but if anyone can figure it out, please either post it 
or send it to me. That should be about it. Enjoi! 

-------------------------------------------------------------------------------
Comments