Sick Of It All - America Chords & Tabs

 

America Chords & Tabs

Sick Of It All Chords & Tabs

Version: 1 Type: Bass Tab 0 ratings
1 star 2 stars 3 stars 4 stars 5 stars
comments

America Bass Tab

   
  sick of it all
 ----America-----
------------------

guitar + drums intro, when it ends play:
G|----------------|
D|----------------|
A|----------------|
E|-0-0-0-0-0-0-...|

verse:
G|---------------|-----------------------------------|
D|---------------|-----------------------------------|
A|---------------|-5-7-5-7-5-7-------------4-4-4-2-2-|
E|-0-0-0-0-0-0-0-|-------------7-5-0-5-5-5-----------|another fill is played 
                                                      but that's to hard for me
 sometimes this fill is played at the end of a verse:
  G|----------------------------|
  D|-------------5-7-5----------|
  A|---------5-7-------7-5------|
  E|-0-0-0-0---------------7\-0-|
[ Tab from: http://www.guitartabs.cc/tabs/s/sick_of_it_all/america_btab.html ]
chorus: (how could they do this...)
G|--------------------------------------|
D|--------------------------------------|
A|-4-4-4--------4-4-4---------4-4-4-2-2-|
E|--------5-5----------5-5--------------|

Bridge part 1
G|---------------------------------|
D|---------------------------------|
A|-4-4-4-4---------7-7-7-7---------|
E|---------5-5-5-5---------7-7-7-7-|

bridge part 2
G|-----------------------------------|
D|-----------------------------------|
A|-4-6-7-6---4-5---------------6-7-6-|
E|---------5-----5-0-4-5-0-7-7-------|

bridge part 3
G|---------|
D|---------|
A|---------|
E|-7---5-7-|

The bridge in total is a mix of these 3 parts
This is a pretty  hard song to tab so it isn't 100% coorrect
but I think you should be abble to jam allong now ;)
comments?-> Bertdedecker1@hotmail.com
Comments