Sick Of Change - Thoughts That Defile Chords & Tabs

 

Thoughts That Defile Chords & Tabs

Sick Of Change Chords & Tabs

Version: 1 Type: Tab 0 ratings
1 star 2 stars 3 stars 4 stars 5 stars
comments

Thoughts That Defile Tab

   
Sick Of Change - Thoughts That Defile


By: Gary(TheAtaris07@aol.com) 

TUNE 1/2 STEP DOWN! 

... - palm mute 
~ - let ring out 
h - hammer on 
p - pull off 
4x - mute after strumming 

Intro: (1.5x) 
e|---------------------------------------------------------------------------| 
B|----4-----------4-----------4----------------------------------------------| 
G|----------4-----------4-------------3-----4-----4-----3-----4--------------| 
D|6-6---6-6---6-6---6-6---6-6---6-6-6---6-6---6-6---6-6---6-6---6------------| 
A|---------------------------------------------------------------------------| 
E|---------------------------------------------------------------------------| 
... ... ... ... ... ..... ... ... ... ... . 

Intro Cont'd: 
e|---------------------------------------------------------------------------| 
B|----------4-------------------------------4--------------------------------| 
G|----4-----------4-----4-----6-------4-----------4-----4-----6--------------| 
D|2-2---2-2---2-2---2-2---2-2---2-2-2---2-2---2-2---2-2---2-2---2------------| 
A|---------------------------------------------------------------------------| 
E|---------------------------------------------------------------------------| 
... ... ... ... ... ..... ... ... ... ... . 

Intro Cont'd: 
e|---------------------------------------------------------------------------| 
B|---------------------------------------------------------------------------| 
G|---------------------------------------------------------------------------| 
D|2-2-2-2-2-2-2-2-2-2-2-2-4-4-4-4-4-4-4-4-4-4-4-4----------------------------| 
A|2-2-2-2-2-2-2-2-2-2-2-2-4-4-4-4-4-4-4-4-4-4-4-4----------------------------| 
E|0-0-0-0-0-0-0-0-0-0-0-0-2-2-2-2-2-2-2-2-2-2-2-2----------------------------| 

Verse: (4x) 
e|---------------------------------------------------------------------------| 
B|---------------------------------------------------------------------------| 
G|---------------------------------------------------------------------------| 
D|----4-----4-----4-----4-----1-----1-----1-----1----------------------------| 
A|2-2---2-2---2-2---2-2------------------------------------------------------| 
E|------------------------2-2---2-2---2-2---2-2------------------------------| 
... ... ... ... ... ... ... ... 

Interlude: (You figure out strumming) (2x) (Fill at end of this part) 
e|-----------------------------------------|---------------------------------| 
B|-----------------------------------------|---------------------------------| 
G|------------9---9------------------------|--4-----3-----3h4----------------| 
D|9---9---9---9---9------------------------|----6-6---6-6--------------------| 
A|9---9---9---6---7------------------------|---------------------------------| 
E|7---6---7--------------------------------|---------------------------------| 
... ... 

Verse: (2x) 
e|---------------------------------------------------------------------------| 
B|---------------------------------------------------------------------------| 
G|---------------------------------------------------------------------------| 
D|----6-----4h6-----6-----4-----------------------------4-----4-----4-----4--| 
A|------------------------------9-----9-----6-----6--------------------------| 
E|4-4---4-4-----4-4---4-4---7-7---7-7---7-7---7-7---0-0---0-0---0-0---0-0----| 
... ... ... ... ... ... ... ... ... ... ... ... 
[ Tab from: http://www.guitartabs.cc/tabs/s/sick_of_change/thoughts_that_defile_tab.html ]
Verse Cont'd: 
e|---------------------------------------------------------------------------| 
B|---------------------------------------------------------------------------| 
G|---------------------------------------------------------------------------| 
D|---------------------------------------------------------------------------| 
A|----4-----4-----2-----1----------------------------------------------------| 
E|2-2---2-2---2-2---2-2------------------------------------------------------| 
... ... ... ... 

Chorus: "Our lives will..." (You figure out strumming) 
e|---------------------------------------------------------------------------| 
B|---------------------------------------------------------------------------| 
G|---------------------------------------------------------------------------| 
D|-9---6---2--4---9---6---2~-------------------------------------------------| 
A|-9---6---2--4---9---6---2~-------------------------------------------------| 
E|-7---4---0--2---7---4---0~-------------------------------------------------| 

Bridge: (Repeat lots) 
e|---------------------------------------------------------------------------| 
B|---------------------------------------------------------------------------| 
G|------4-4-4-------3-3-3-4-4-6-6-------4-4-4--------------------------------| 
D|6-6-6-------4-4-4---------------2-2-2-------4x--4-4-4-6-6-8-8--------------| 
A|---------------------------------------------------------------------------| 
E|---------------------------------------------------------------------------| 
............................................................. 

Bridge Cont'd: (2x) 
e|---------------------------------------------------------------------------| 
B|----------------------------------------------------------4----------------| 
G|----4---4-----4---4-----4-----6---6-----6h8---8-----8---------4-----3h4---4| 
D|6-6---6---6-6---6---6-6---9-9---9---9-9-----9---9-9---2-2---2---2-2-----2--| 
A|---------------------------------------------------------------------------| 
E|---------------------------------------------------------------------------| 
... . ... . ... ... . ... . ... ... . ... . 

Bridge Cont'd: 
e|---------------------------------------------------------------------------| 
B|---------------------------------------------------------------------------| 
G|----3-----3---6-----3h6---4-----3------------------------------------------| 
D|2-2---4-4---4---4-4-----4---4-4--------------------------------------------| 
A|---------------------------------------------------------------------------| 
E|---------------------------------------------------------------------------| 
... ... . ... . ... 

Next Part: (You figure out strumming) 
e|---------------------------------------------------------------------------| 
B|---------------------------------------------------------------------------| 
G|----9------------------9---------------------------4-----------------------| 
D|6---9---9---2--4---6---9---9---4---2---4---6---4---4---2---4---------------| 
A|6---7---9---2--4---6---7---9---4---2---4---6---4---2---2---4---------------| 
E|4-------7---0--2---4-------7---2---0---2---4---2-------0---2---------------| 

Ending: (3x, then cut off last one and ring on last chord) 
e|---------------------------------------------------------------------------| 
B|---------------------------------------------------------------------------| 
G|----4---4---4-------4---------4~-------------------------------------------| 
D|4-4---4---4---4-4-4-----------4~-------------------------------------------| 
A|------------------------------2~-------------------------------------------| 
E|---------------------------------------------------------------------------| 
... . . ..... 

Sick of Change has cool riffs. Too bad they broke up. 
http://www.geocities.com/ggtabs07
Comments