Sick Of Change - Endless Thoughts Chords & Tabs

 

Endless Thoughts Chords & Tabs

Sick Of Change Chords & Tabs

Version: 1 Type: Tab 0 ratings
1 star 2 stars 3 stars 4 stars 5 stars
comments

Endless Thoughts Tab

------------------------------------------------------------------------------- 
                     ENDLESS THOUGHTS - Sick Of Change 
------------------------------------------------------------------------------- 

Artist:Sick of Change 
Tabbed by:kiffer8@hotmail.com 

Intro 1 
e|------------------------------------------------------ 
B|------------------------------------------------------ 
G|-----5---5-----5---5-----5---5------5----5------5---5- 
D|-----5---5-----5---5-----5---5------5----5------5---5- 
A|-000---0-----------------------------------000----0--- 
E|-----------000---0---111---1----111----1-------------- 
palm mute everything except the 5th frets on D&G 

intro 1(cont.) 
e|------------------------------------------------------ 
B|------------------------------------------------------ 
G|-----5---5-----5---5-----5----4----------------------- 
D|-----5---5-----5---5-----5----5----------------------- 
A|------------------------------------------------------ 
E|-000---0---111---1----11---11------------------------- 
palm mute everything except the 5th/4th frets on D&G 

intro 2 
e|------------------------------------------------------ 
B|------------------------------------------------------ 
G|-----5555------4444-----5555------5555---(last-time)-- 
D|-----5555------5555-----5555------5555----3--3--3----- 
A|-000--------------------------------------3--3--3----- 
E|----------000-------111-------333---------1--1--1----- 
palm mute everything except the 5th frets on D&G 

intro 3 
e|------------------------------------------------------ 
B|------------------------------------------------------ 
G|-5----------5555------5555--5------------------------- 
D|-5(12x)-----5555------5555--5(12x)-333333-555555------ 
A|-3--------------------------3------333333-555555------ 
E|--------111-------111--------------111111-333333------ 

verse 
e|------------------------------------------------------ 
B|------------------------------------------------------ 
G|---------------5---------------------------5---------- 
D|-3(let--5(let--5(12x)-3------3(let--5(let--5(12x)----- 
A|-3ring)-5ring)-3------3(12x)-3ring)-5ring)-3---------- 
E|-1------3-------------1------1------3----------------- 
[ Tab from: http://www.guitartabs.cc/tabs/s/sick_of_change/endless_thoughts_tab.html ]
verse(cont.) 
e|------------------------------------------------------ 
B|------------------------------------------------------ 
G|------------------------------------------------------ 
D|-3------3(let--5(let---------------------------------- 
A|-3(12x)-3ring)-5ring)--------------------------------- 
E|-1------1------3-------------------------------------- 

interlude (palm mute the root notes only) 
e|------------------------------------------------------ 
B|------------------------------------------------------ 
G|------------------------------------------------------ 
D|-----5----5--------5----5-------5----5--------5---5--- 
A|-000---00---0--222---22---2-333---33---3--000--00---0- 
E|------------------------------------------------------ 

interlude(cont.) 
e|------------------------------------------------------ 
B|------------------------------------------------------ 
G|---------------------5----4--------------------------- 
D|------5----5---------5----5-----5----5----5----5------ 
A|--222---22---2---------------00---00------------------ 
E|----------------111----11--------------00---00-------- 

interlude(cont.) 
e|------------------------------------------------------ 
B|------------------------------------------------------ 
G|------------------------------------------------------ 
D|---5----5--532323------5---5---5---5---5---5---5---5-- 
A|------------------5--00--00--------------------------- 
E|11---11----------------------00--00--11--11--11--11--- 

solo 
e|------------------------------------------------------ 
B|------------------------------------------------------ 
G|------------------------------------------------------ 
D|-7(let---7-2-3-5-------------------------------------- 
A|-7ring)--7-2-3-5-------------------------------------- 
E|-5-------5-0-1-3-------------------------------------- 

outro 
e|------------------------------------------------------ 
B|------------------------------------------------------ 
G|------------------------------------------------------ 
D|--333-33-333-33-333-33-3333-----3(let----------------- 
A|--333-33-333-33-333-33-3333-----3ring)---------------- 
E|--111-11-111-11-111-11-1111-----1--------------------- 

right now i'm too tired to do a song order but those 
are all the parts to the song. the verse part is played 
alot. plus intro 3 is played while kevin sings 
sometimes. enjoy 

-------------------------------------------------------------------------------
Comments