Sick Of Change - A Rose Among The Thorns Chords & Tabs

 

A Rose Among The Thorns Chords & Tabs

Sick Of Change Chords & Tabs

Version: 1 Type: Tab 0 ratings
1 star 2 stars 3 stars 4 stars 5 stars
comments

A Rose Among The Thorns Tab

------------------------------------------------------------------------------- 
              A ROSE AMONG THE THORNS - Sick Of Change 
------------------------------------------------------------------------------- 

Tabbed By:kiffer8@hotmail.com 

there are alot of times where the band makes slight 
changes. i didn't feel the need to tab these out. 
the song is in a b-major scale so any of the parts i 
didn't put can be found in that. 

intro 
e|------------------------------------------------------ 
B|------------------------------------------------------ 
G|---4--------4--------4------4-------4-----4------6---- 
D|-----4---------4-------4------4-------4-----4-------4- 
A|--------------------------------1-------1-----2------- 
E|-0-------0--------4------4---------------------------- 

e|------------------------------------------------------ 
B|------------------------------------------------------ 
G|----3-------4-----4-----4-----4------4-----4-----4---- 
D|------4-------4-----4-----4-----4------4----4------4-- 
A|-----------------------------------------------2------ 
E|--2------0------0-----4-----4-----2------2------------ 

intro part 2 
e|------------------------------------------------------ 
B|----2-0-----4-0--------------------------------------- 
G|------------------------------------------------------ 
D|-2------2--------------------------------------------- 
A|------------------------------------------------------ 
E|------------------------------------------------------ 

verse 
e|--------------------|-------------------------------|- 
B|--------------------|----2-0----4--0----------------|- 
G|-8--------6-------4-|-------------------------------|- 
D|-6-(12x)--4-(12x)-2-|-2-------2------(1st time only)|- 
A|-6--------4-------2-|-------------------------------|- 
E|-4--------2-------0-|-------------------------------|- 
[ Tab from: http://www.guitartabs.cc/tabs/s/sick_of_change/a_rose_among_the_thorns_tab.html ]
chorus 
e|------------------------------------------------------ 
B|------------------------------------------------------ 
G|----------------------4--------------------3---------- 
D|-2------6------4------4-(6x)-2------1------3-(6x)----- 
A|-2-(6x)-6-(6x)-4-(6x)-2------2-(6x)-2-(6x)-1---------- 
E|-0------4------2-------------0------4----------------- 

e|-|-----------|---------------------------------------- 
B|-|-----------|--(2nd time)---------------------------- 
G|-|-(1st time)|---------------------------------------- 
D|-|-----------|-6------4------2------------------------ 
A|-|6-4-6-6-4-2|-6-(3x)-4-(3x)-2------------------------ 
E|-|-----------|-4------2------0------------------------ 

riff after chorus(palm mute the 7th fret A-string) 
e|----------------------------|------------------------- 
B|----------------------------|------------------------- 
G|----8---8---8----6----8-----|------------------------- 
D|----------------------------|---6--------------------- 
A|-77---7---7---7----7---(4x)-|---6-(3x)---------------- 
E|----------------------------|---4--------------------- 
riff cont. (palm mute 4th fret D-string) 
e|---------------------------|-------------------------- 
B|------FIRST----TIME--------|----SECOND--TIME---------- 
G|------3-----6-----4-----3--|-------------------------- 
D|---44---4------4-----4----6|6------444444-XXXXXXXX---- 
A|---------------------------|6(12x)-444444-XXXXXXXX---- 
E|---------------------------|4------222222-XXXXXXXX---- 

guitar solo(starts at the end of the chorus) 
e|------------------------------------------------------ 
B|------------------------------------------------------ 
G|---99--11-11--13--11--8-9-8-4-6----------------------- 
D|------------------------------------------------------ 
A|---77--9--9---11--9---6-7-6-2-4----------------------- 
E|------------------------------------------------------ 

the rest of the solo is the same as the intro and the 
e string is palm muted. 

acoustic part 
e|------------------------------------------------------ 
B|--0---------0----------------------------------------- 
G|-----3---3----3--------------------------------------- 
D|-------4---------------------------------------------- 
A|------------------------------------------------------ 
E|------------------------------------------------------ 

song order 
intro 2x 
intro part 2 12x 
verse 2x 
chorus 2x 
riff after chorus 2x 
chorus 2x 
gutiar solo 1x 
intro w/ P.M. 2x 
acoustic part 1x 
chorus 2x 

-------------------------------------------------------------------------------
Comments