Siam Shade - Junjou Na Kanjou Chords & Tabs

 

Junjou Na Kanjou Chords & Tabs

Siam Shade Chords & Tabs

Version: 1 Type: Tab 0 ratings
1 star 2 stars 3 stars 4 stars 5 stars
comments

Junjou Na Kanjou Tab

   
[Siam Shade]  Sanbun no Ichi-Junjou na Kanjou
Composed by Siam Shade - OST Rurouni Kenshin.
Tabbed my Kevin Mario
crescentsaber@hotmail.com

----------------------------------------------------------------------------------------
VERSION
----------------------------------------------------------------------------------------
Created at 26 Nov 2001 version 1
please be patient I'm currently tabbing the whole song so it takes time.
----------------------------------------------------------------------------------------

This tab can be found at :
http://come.to/lunarist
http://djieitz.cjb.net

E------------------------------------------------
B------------------------------------------------
G------------------------------------------------
D------------------------------------------------
A------------------------------------------------
E------------------------------------------------

I only tab the tabs, dont ask tempo just listen to the song.

----------------------------------------------------------------------------------------
Chords used
----------------------------------------------------------------------------------------
      D     C    Bb    Dm
E  |--2--|-----|--1--|--1--|
B  |--3--|--1--|--3--|--3--|
G  |--2--|-----|--3--|--2--|
D  |-----|--2--|--3--|-----|
A  |-----|--3--|--1--|-----|
E  |-----|-----|--1--|-----|


----------------------------------------------------------------------------------------
Intro - Guitar 1 Palm Muted - Guitar 2 not playing
----------------------------------------------------------------------------------------

E----------------------------------------------------0-------
B------------------------------------------------------3-----
G-----0-----0-------0-----0--------0-----0-------0-------2---
D---3-----3---3---2-----3--------3-----3---3---2---0---------
A-1-----3-------0-----1------1-1-----3-------0---------------
E------------------------------------------------------------

Play 3 times, at the 2nd the singer sings.
After that play below.. (there is a slight change)

[Guitar 1 and Guitar 2 together]

Guitar 1
E------------------------------------------------
B------------------------------------------------
G-----0-----0-------0-------0--------0-----0-----
D---3-----3---3---2---2---3--------3-----3---3---
A-1-----3-------0-------1------1-1-----3---------
E------------------------------------------------
[ Tab from: http://www.guitartabs.cc/tabs/s/siam_shade/junjou_na_kanjou_tab.html ]
Guitar 2
E------------------------------------------------
B------------------------------------------------
G------------------------------------------------
D---3-----5-------2-------3--------3-----5-------
A-1-----3-------0-------1--------1-----3---------
E------------------------------------------------

----------------------------------------------------------------------------------------
[AFTER INTRO] play Chord
Guitar 1 < Strum hold > and Guitar 2 < Play each string >
----------------------------------------------------------------------------------------
      D     C    Bb     2x
E  |--2--|-----|--1--|
B  |--3--|--1--|--3--|
G  |--2--|-----|--3--|
D  |-----|--2--|--3--|
A  |-----|--3--|--1--|
E  |-----|-----|--1--|


----------------------------------------------------------------------------------------
At verse 1 Guitar 1 plays this :
----------------------------------------------------------------------------------------

E-------------------
B-------------------
G-------7------9-7--
D-------------------  Twice  (call this Verse 1A)
A-5-5-5----5-5------
E-------------------

E-------------------
B-------------------
G-------6------7-6--
D-------------------  Twice  (call this Verse 1B)
A-5-5-5----5-5------
E-------------------

After that play Verse 1A twice and then :

E--------------------------------------
B--------------------------------------
G-------6------7-6--------6----7-6-----
D----------------------------------7---
A-5-5-5----5-5------5-5-5--------------
E--------------------------------------


Lyrics :
----------------------------------------------------------------------------------------
Intro and Reff
----------------------------------------------------------------------------------------
Bb       C    Am      Bb
Kowareru hodo aishite-mo

Bb       C        Am       Dm
Sanbun no Ichi mo tsutawaranai

Bb       C          Am      Bb
Junjou na Kanjou wa kala-mawari

Bb            C    Am     Dm
[I love you] sae ienai deiru

Bb   C     Am     Bb    Bb     C     D
MY HEART...


----------------------------------------------------------------------------------------
Verse 1
----------------------------------------------------------------------------------------
D                       G
Nagashte-mu renai yoru-ga kowareru aomo-i

D                    G
Sore wa koi nan-deshto sasayaku yo

Comments