Siakol - Wag Mong Isipin Yon Chords & Tabs

 

Wag Mong Isipin Yon Chords & Tabs

Siakol Chords & Tabs

Version: 1 Type: Tab 0 ratings
1 star 2 stars 3 stars 4 stars 5 stars
comments

Wag Mong Isipin Yon Tab

   
Artist :Siakol
Song: Wag mong isipin yon
Chords: E,F#,G#m,E
Bridge: F#,C#m,F#,B
Guitar solo
----------------------------------------------------------/12--11-----------------------------------------------------
-------------------------------10 9 10 9----------------------------12--10----9h10-9--------------------------9h10-9-11-
-/9--8------/14-13-------------------------9-9s11---------------------------------------11--9-------------9h11---------
--------9------------14-----------------------------------------------------------------------------9h11--------------
----------------------------------------------------------------------------------------------------------------------
----------------------------------------------------------------------------------------------------------------------

/17-16------------------------------------------------------------------------------------------------------
----------17 16----------------------------------------10p9----------10p9-----------------------------------
-------------------14-13-------------------------------------11p9-9--------11h9-9--9h11-9--------9h11-9-8---
--------------------------------------------12h14-14---------------------------------------9h11-------------
----------------------------12-11--11h12-12-----------------------------------------------------------------
------------------------------------------------------------------------------------------------------------
[ Tab from: http://www.guitartabs.cc/tabs/s/siakol/wag_mong_isipin_yon_tab.html ]
----------------------------
-10-10-10/12-12bh-----------
----------------------------
----------------------------
----------------------------
----------------------------
Second Part
----------------------------------------------------------------------------------------------------------------------------
---------------------------------------------------------------------------------------------------9h10-9-----------------
-----------9h11-11--------9h11-11-------------9h11-9---------9h11-9------------9h11----------------------------
--9h11--------------9h11-----------------9h11-----------9h11--------------9h11-------------------------------------
------------------------------------------------------------------------------------------------------------------------------
------------------------------------------------------------------------------------------------------------------------------

------------------------------------------------------------------------------------------------------------------------------
-------------------------------------------------------------------------------9h10-------9/10--10------------------------
---------9h11-11----------9h11-11-----------9h11---------9h11--9------------11-----------------------------------------
-9h11--------------9h11---------------9h11---------9h11---------------------------------------------------------------------
-------------------------------------------------------------------------------------------------------------------------------
-------------------------------------------------------------------------------------------------------------------------------

-------------------------/17--16--14--12--12h14---------------------
--9h10-------9/10-10-------------------------------14---------------
----------11--------------------------------------------------------
--------------------------------------------------------------------
--------------------------------------------------------------------

Any KoMeNtz, Korekzyon Kahit ano. Email nyoko sa Lorger20@hotmail.com
Morepower to G_Ztringz ma band... 514 represents

Comments