Siakol - Maligayang Pasko Chords & Tabs

 

Maligayang Pasko Chords & Tabs

Siakol Chords & Tabs

Version: 1 Type: Tab

Maligayang Pasko Tab

   
GuItAr lEgEnD: 

( ) - hOLD
 p  - pULL off
 h  - hAmmer oN
 v  - vIBraTO



intro: C---G

:---------------------------------------------------3-3-3--:
:----------------------5-5-5-5-(5)-h6-5-5h6-(5)-----3-3-3--:
:------(5)-5-5-5-(5)-7------------------------------0-0-0--:
:---------------------------------------------------0-0-0--:
:---------------------------------------------------2-2-2--:
:---------------------------------------------------3-3-3--:

Guitar solo : C-Am-Dm-G
[ Tab from: http://www.guitartabs.cc/tabs/s/siakol/maligayang_pasko_tab.html ]
:---------------------7-5---(5)vvv-------------------------:
:-------(5)-5-5-5-(5)-----8--------------------------------:
:---5-7----------------------------------------------------:
:----------------------------------------------------------:
:----------------------------------------------------------:
:----------------------------------------------------------:

:-------------5VV---5VVV-----------------------------------:  ::::   ::    ::
:-----------------8------8VVV------------------------------:      :    :  :
:----4-5-7vvv----------------------------------------------:    ::      ::
:----------------------------------------------------------:  ::       :  :
:----------------------------------------------------------:  ::      :    :
:----------------------------------------------------------:  :::::  ::     ::





Kung May tanong kayo i email nyo na lang to Laasvthegreat@yahoo.com


Binabati Ko si 
Rolf Natividad
Ben Moranio
Harold Roldan
Jay-r CerdenIO

At siyempre si Von Prejillana

Mga PCSIans To HEHEHE!!!