Siakol - Lagim Chords & Tabs

 

Lagim Chords & Tabs

Siakol Chords & Tabs

Version: 2 Type: Tab 0 ratings
1 star 2 stars 3 stars 4 stars 5 stars
comments

Lagim Tab

   


Intro Rhythm

       E     
          
E |----0--0-0-0-0-0-0-0-0-0-0-----| Repeat 4x
B |----0--0-0-0-0-0-0-0-2-2-2-----|
G |----1--1-1-2-2-2-1-1-1-1-1-----|
D |----2--2-2-2-2-2-2-2-2-2-2-----|
A |----2--2-2-2-2-2-2-2-2-2-2-----|
E |----0--0-0-0-0-0-0-0-0-0-0-----|
[ Tab from: http://www.guitartabs.cc/tabs/s/siakol/lagim_tab_ver_2.html ]
Guitar Solo
       E     
          
E |-----------------------------------9-9-|
B |---------9-10-9---10/--12-10--9h10-----|
G |---9--11--------9----------------------|
D |---------------------------------------|
A |---------------------------------------|
E |---------------------------------------|

       E     
          
E |--------------------------------------------|
B |---------9-10-9---10/--12-10--9h10----------|
G |---9--11--------9------------------9--9-9~--|
D |--------------------------------------------|
A |--------------------------------------------|
E |--------------------------------------------|Repeat 2x
Comments