Siakol - Kanto Chords & Tabs

 

Kanto Chords & Tabs

Siakol Chords & Tabs

Version: 1 Type: Tab 0 ratings
1 star 2 stars 3 stars 4 stars 5 stars
comments

Kanto Tab

title:kanto
artist:siakol
tabbed by:sherwin a.k.a slash'snakepit
[ Tab from: http://www.guitartabs.cc/tabs/s/siakol/kanto_tab.html ]
solo
1st,2nd,3rd solo
e|-13-14^------12-12-13--13-15-13/15-14^-------12-12-13--13-15-13/15-14^---|
G|-------13-13---------------------------13--13-------------------------13-|
B|-------------------------------------------------------------------------|
D|-------------------------------------------------------------------------|
A|-------------------------------------------------------------------------|
E|-------------------------------------------------------------------------|

4th solo
e|-13-14^------12-12-13--13-15-13/15-14^-------12-12-13--13-15-13/15-14^-17-|
G|-------13-13---------------------------13--13-----------------------------|
B|--------------------------------------------------------------------------|
D|--------------------------------------------------------------------------|
A|--------------------------------------------------------------------------|
E|--------------------------------------------------------------------------|
Comments