Siakol - Kabilang Mundo Chords & Tabs

 

Kabilang Mundo Chords & Tabs

Siakol Chords & Tabs

Version: 1 Type: Bass Tab

Kabilang Mundo Bass Tab

   
www.ultimate gutar.com
siakol kabilang mundo album
song:kabilang mundo
Tabbed by:jerald of two pairs band(dupax del sur,nueva vizcaya)

standard tuning...

   INTRO D-G
 G]-------------------------------------------|
 D]-------------------------------------------|  4x
 A]-------------------------------------------|
 E]-3s10(8X)s5s3------------------------------|

   REFRAIN
 G]-------------------------------------------|
 D]-------------------------------------------|
 A]--5-5-5-5-5-5-5--------------2-2-2-2-2-2-2-|
 E]----------------3-3-3-3-3-3-3--------------|  2X

 G]-------------------------------------------|
 D]-------------------------------------------|
 A]-------------------------------------------|
 E]--5-5-5-5-5-5-5----------------------------|

   CHORUS
 G]-------------------------------------------|
 D]-------------------------------------------|
 A]-5-5-5-5-5-5-5-5-----------------2-2-2-2-2-|
 E]-----------------3-3-3-3-3-3-3-3-----------| 2X
[ Tab from: http://www.guitartabs.cc/tabs/s/siakol/kabilang_mundo_btab.html ]
 G]-------------------------------------------|
 D]-------------------------------------------|
 A]-2-2-2-------------------------------------|
 E]-------5-5-5-5-5-5-5-5---------------------|

   BRIDGE
 G]-------------------------------------------|
 D]-------------------------------------------|
 A]---5-5-5----2-2-2--------------------------|
 E]---------3--------5------------------------|

   OUTRO
 G]-------------------------------------------|
 D]-------------------------------------------|
 A]-5-5-5-5-5-5-5-5-----------------2-2-2-2-2-|
 E]-----------------3-3-3-3-3-3-3-3-----------|

 G]-------------------------------------------|
 D]-------------------------------------------|
 A]-2-2-2-------------------------------------|
 E]-------5-5-5-5-5-5-5-5---------------------|

 S= SLIDE


 ang song na 2 ay alay ko sa mga bandmates ko...alvin "goyyo" guitars...edwin "jake" 
"negro" vocals...at sa asawa ko
c kristine....at sa lahat ng mahilig sa musikang pinoy!!!humayo kayo
at magparami!!!!


                                                     jerald b. ulep
                                                    =================
                                                     mental patient