Siakol - Isang Bote Ng Alak Chords & Tabs

 

Isang Bote Ng Alak Chords & Tabs

Siakol Chords & Tabs

Version: 1 Type: Tab 0 ratings
1 star 2 stars 3 stars 4 stars 5 stars
comments

Isang Bote Ng Alak Tab

   
Isang Bote ng Alak - (Siakol)
Tab by: alay
any comments e-mail: alay_slash@yahoo.com

Adlib
G - E 2x Am - D 3x

E|----------------------------------------------------|
B|--12-12--15-12-13-12--12-15-12-13-12----------------|
G|-------------------------------------14b-16-14b16---|
D|----------------------------------------------------|
A|----------------------------------------------------|
E|----------------------------------------------------|


E|----------------------------------------------------|
B|----------------------------------------------13-12-|
G|--14p12----12-14b16--14p12----12--14-14p12----------|
D|--------14-----------------14--------------14-------|
A|----------------------------------------------------|
E|----------------------------------------------------|


E|----------------------------------------------------|
B|--12-15-12-13-12-12-13-12-15--12-13p12--------------|
G|--------------------------------------14-14b16------|
D|----------------------------------------------------|
A|----------------------------------------------------|
E|----------------------------------------------------|

[ Tab from: http://www.guitartabs.cc/tabs/s/siakol/isang_bote_ng_alak_tab.html ]
E|----------------------------------------------------|
B|----------------------------------------------------|
G|--14b-16-14p12----12--14b16--14p12------12-14-------|
D|---------------14-------------------14--------------|
A|----------------------------------------------------|
E|----------------------------------------------------|


E|----------------------------------------------------|
B|--12-13-15-13-13p12---------------------------------|
G|--------------------14-12-14-14b-16--14p12----12-14-|
D|-------------------------------------------14-------|
A|----------------------------------------------------|
E|----------------------------------------------------|


E|----------------------------------------------------|
B|--12-13-15-12--13p12--------------------------------|
G|---------------------14-12--14-14b16--14p12----2-4--|
D|--------------------------------------------14------|
A|----------------------------------------------------|
E|----------------------------------------------------|


E|----------------------------------------------------|
B|--12-13-15--13p-12----------------------------------|
G|-------------------14-12--14-14b16--14p12----2-4----|
D|------------------------------------------14--------|
A|----------------------------------------------------|
E|----------------------------------------------------|

E|----------------------------------------------------|
B|--12-13-12-10-12~-----------------------------------|
G|----------------------------------------------------|
D|----------------------------------------------------|
A|----------------------------------------------------|
E|----------------------------------------------------|


para ito sa lahat ng naging kaibigan ko pag balik dyan sa davao inum tayo
rate naman o para ito sa mga kaibigan ko!!
thankz!!
Comments