Siakol - Hindi Mo Ba Alam Chords & Tabs

 

Hindi Mo Ba Alam Chords & Tabs

Siakol Chords & Tabs

Version: 1 Type: Tab 0 ratings
1 star 2 stars 3 stars 4 stars 5 stars
comments

Hindi Mo Ba Alam Tab

E|------------------8-7~---7-10-8-7-------------|
B|--------4-5-7~-/8------8----------10~-8h10----|
G|--4-5-7---------------------------------------|
D|----------------------------------------------|
A|----------------------------------------------|
E|----------------------------------------------|

E|--------------------7h8p7-----10-7h8p7-----10-|
B|-8-7----------------------8---7--------8---7--|
G|-----9-7--------------------9-7----------9-7--|
D|---------10-9-7-------------------------------|
A|----------------7~----------------------------|
E|----------------------------------------------|
[ Tab from: http://www.guitartabs.cc/tabs/s/siakol/hindi_mo_ba_alam_tab.html ]
E|----------------------------------------------|
B|-----7-8-10/12-10-8-10-8-7-8--8-7-------------|
G|-7-9------------------------------9-7---------|
D|--------------------------------------10-9-7--|
A|----------------------------------------------|
E|----------------------------------------------|

E|----------------------------------------------|
B|----------------------------------------------|
G|----------------------------------------------|
D|----7-----------------------------------------|
A|-10---10-9-7-10-9-7---------------------------|
E|--------------------10-8~---------------------|

Guitar 2

E|-0---0---0---0---------0---0---0-0------------|
B|---3---3---3---3-----3---3---3-----3----------|
G|-----0---0---0---0-2---2---0---------0--------|
D|----------------------------------------------|
A|----------------------------------------------|
E|----------------------------------------------|
Comments