Siakol - Hindi Mo Ba Alam Chords & Tabs

 

Hindi Mo Ba Alam Chords & Tabs

Siakol Chords & Tabs

Version: 1 Type: Chords 0 ratings
1 star 2 stars 3 stars 4 stars 5 stars
comments

Hindi Mo Ba Alam Chords

   
G           C             G  C 
Hindi mo ba alam na ako'y nasasaktan
                        G             C                  D                 
Sa tuwing ikaw ay aalis at hindi nag paalam
Em                          Bm      Em              Bm
Nais kong malaman mo na ako'y nag tatampo
C                        Am                      D
Pag nalimutan mo ang pasalubong ko

(same chords on 1st stanza)     
Hindi mo ba alam na ako'y nasasaktan
Pag nakikita kitang may ibang ka kwentuhan
 
  Nais kong malaman mo na ako'y nandirito
Pwede ba ako kahit maki usyoso

Chorus 
          C                 D            Bm            Em
Ngunit pag sapit ng gabi heto ka sa 'king tabi
        Am             D              G      G7
Sa pag ibig mo 'di ako nag sisisi
          C                 D                        Bm              
At pag gising sa umaga maamo mong 
                     Em
mukha ang nakikita
          Am             D                        G      
Na sa akin ay lubos na nagpa-paligaya.

Guitar G, C 3x, D
[ Tab from: http://www.guitartabs.cc/tabs/s/siakol/hindi_mo_ba_alam_crd.html ]
(same chords on 1st stanza)                     
Hindi mo ba alam na ako'y nasasaktan                        
Sa tuwing ika'y na lulungkot at mata ay luhaan                          
Nais kong malaman mo yan ay pupunasan ko                  
Sa katapatan ng pagmamahal ko sa iyo.

Repeat Chorus
Solo Guitar

E|------------------8-7~---7-10-8-7-------------|
B|--------4-5-7~-/8------8----------10~-8h10----|
G|--4-5-7---------------------------------------|
D|----------------------------------------------|
A|----------------------------------------------|
E|----------------------------------------------|

E|--------------------7h8p7-----10-7h8p7-----10-|
B|-8-7----------------------8---7--------8---7--|
G|-----9-7--------------------9-7----------9-7--|
D|---------10-9-7-------------------------------|
A|----------------7~----------------------------|
E|----------------------------------------------|

E|----------------------------------------------|
B|-----7-8-10/12-10-8-10-8-7-8--8-7-------------|
G|-7-9------------------------------9-7---------|
D|--------------------------------------10-9-7--|
A|----------------------------------------------|
E|----------------------------------------------|

E|----------------------------------------------|
B|----------------------------------------------|
G|----------------------------------------------|
D|----7-----------------------------------------|
A|-10---10-9-7-10-9-7---------------------------|
E|--------------------10-8~---------------------|

Repeat Chorus

Hindi mo ba alam?
 
Ang solo ay kinopya ko ka Rmagpantay!!!
Comments