Siakol - Bakit Ba Chords & Tabs

 

Bakit Ba Chords & Tabs

Siakol Chords & Tabs

Version: 8 Type: Tab 0 ratings
1 star 2 stars 3 stars 4 stars 5 stars
comments

Bakit Ba Tab

   
bakit ba?
siakol

intro: G-Em-C-D(2x)
verse: G-Bm-Em-Am-D(4x)
C-|horus:G-Em-C-D(2x) then C-D(3x)
c-|hords behind the solo: G-Em-C-D(2x) then C-D(3x)&E
c-|horus chords after the solo:(2 frets higher) A-F#m-D-E(2x) then D-E(3x)
outro:A-F#m-D-E(2x)


solo:
--------------------------------------------------------------------------|
--------------------------------------------------------------------------|
-----4-5-7-9-11-12-14-12-14s16-16-16-14-12-14-12-11-12-11----11-12s14-14--|
-5-7------------------------------------------------------12--------------|
--------------------------------------------------------------------------|
--------------------------------------------------------------------------|
[ Tab from: http://www.guitartabs.cc/tabs/s/siakol/bakit_ba_tab_ver_8.html ]
----------------------------------------------------------------------------|
-15-13-12-15-13-12----------------------------------------------------------|
-------------------14-12-14-12-11s12-------11-12-14-12-11----------11-12-14-|
-------------------------------------12-14----------------14-12-14----------|
----------------------------------------------------------------------------|
----------------------------------------------------------------------------|

===============3x=================
----------------------------------|-------------12-10-9-10-9-7-8------------|
-15-13-12-13----15-13-12----------|-----------------------------------------|
-------------12----------12-12s14-|-14-14s16-16-----------------------------|
----------------------------------|-----------------------------------------|
----------------------------------|-----------------------------------------|
----------------------------------|-----------------------------------------|

nakita ko ito once sa concert nila.. ganito ang version na ginamit
100% ako dito.. enjoy it.. paki-rate nalang sure na man ako na tama ito eh!
Comments