Siakol - Bakit Ba Chords & Tabs

 

Bakit Ba Chords & Tabs

Siakol Chords & Tabs

Version: 5 Type: Tab 1 rating
1 star 2 stars 3 stars 4 stars 5 stars
comments

Bakit Ba Tab

   
song: bakit ba
band: siakol
tabbed by jeff h.(y2jc_28@yahoo.com)
			 hey, ito yung bakit ba. sa tingin ko ay tama 
to. also thank you to jason c. for helping out the solo. Enjoy!

intro: G-Em-C-D-Dsus(2x)

1st verse: 
     G 		  Bm	
nag-aaliw sa usok at beer lang ang kasama
e--11s13--10h11-10h11--
b--------------------11
g----------------------
    Em                  Am            D-Dsus
mas-ok pang laging ganto nalilimutan ka
e---10h11-10h11-10h11--
b--------------------11
g----------------------
 G               	  	   Bm              
'di ko malaman sa 'yo kung ano ang drama mo
e-10-11-13-11-10----
b-10-11-13-11-10--11
g-------------------
   C                          Am          D-Dsus
bakit lagi mo na lang sinasaktan ang puso ko
e--10h11-10h11-10h11--
b-------------------11
g---------------------
  G                       Bm
tandang-tanda ko pa noon tayo'y namamasyal
e--11s13--10h11-10h11--
b--------------------11
g----------------------
  Em                         Am            D-Dsus
napasulyap lang sa iba bigla mo na kong sinampal
e--10h11-10h11-10h11--
b-------------------11
g---------------------
     G                  Bm        
at sa kaseselos mo nga'y lalong minahal kita
e--10-11-13-11-10----
b--10-11-13-11-10--11
g--------------------
    Em                 Am     D
subalit nasaan ka na sumama sa iba
e--10h11-11s13
b-------------
g-------------

chorus: 
G       Em
bakit, bakit ba
  C           D-Dsus
iniwan mong nag-iisa
G       Em
bakit, bakit ba
 C              D-Dsus
sa akin ba'y nagsawa na
 C       D-Dsus
sinusunod naman kita
 C            D-Dsus
kahit anong kinakaya
 C           D-Dsus
wala paring kwenta 
        G-Em-C-D-Dsus(2x)
bakit ba?
[ Tab from: http://www.guitartabs.cc/tabs/s/siakol/bakit_ba_tab_ver_5.html ]
2nd verse:
(G-Bm)
ano ba ang nakita mo at pinagpalit mo 'ko
e--11s13--10h11-10h11---
b---------------------11
g-----------------------
(Em-Am-D-Dsus)
nakasisiguro ka ba ngayon sa bago mo
e--10h11--10h11-10h11--
b--------------------11
g----------------------
(G-Bm)
sana ay mahalin ka nya at wag kang sasaktan
e--10-11-13-11-10----
b--10-11-13-11-10--11
g--------------------
(Em-Am-D-Dsus)
kahit di na tayo problema mo'y sabihin lang
e--10h11------------11s13
b-------11-10-11s13------
g------------------------
(G-Bm)
pilit kamang limutin ay naghihintay pa rin
e--11s13--10h11-10h11---
b---------------------11
g-----------------------
(Em-Am-D-Dsus)
nagbabakasakali na muli kang dumating
e--10s13--10-11---------
b---------------11-10---
g---------------------10
(G-Bm)
bakit ba kay hirap ng kalagayan ko ngayon
e--10-11-13-11-10----
b--10-11-13-11-10--11
g--------------------
(Em-Am-D-Dsus)
kaya sa 'king sarili ay laging nagtatanong
e--10h11-11s13
b-------------
g-------------

repeat chorus

Solo:(clean passage)
e--------------2-3-5-3-5s7-7-----7-5-3-5-3-2-3-2---2-3s5-5
b----------3-5-----------------------------------3--------
g------4-5------------------------------------------------
d--5-7----------------------------------------------------
a---------------------------------------------------------
e---------------------------------------------------------

e--10-8-7--10-8-7-----------------------------------------------
b-----------------10-8-10-8-7h8-8--------7-8-10-8-7-------7-8-10
g------------------------------------7-9------------9--7-9------
d---------------------------------------------------------------
a---------------------------------------------------------------
e---------------------------------------------------------------

e--10-8-7-8----10-8-7------10-8-7-8---10-8-7------10-8-7-8--
b-----------8---------8-10----------8--------8-10---------8-
g-----------------------------------------------------------
d-----------------------------------------------------------
a-----------------------------------------------------------
e-----------------------------------------------------------

e--10-8-7---------------------12-9-10-7-9-5-5h7-5
b---------8-10--10s12-12--12---------------------
g------------------------------------------------
d------------------------------------------------
a------------------------------------------------
e------------------------------------------------

repeat chorus 2x

outro: A-F#m-D-E(2x)
(lead in the outro, it may be wrong so correct it if you want to)
e--12-10-9-10-9-10-9--------------------------------------
b----------------------10-9-10-9-10-9-12------9-10-12-10-9
g----------------------------------------9-11-------------
d---------------------------------------------------------
a---------------------------------------------------------
e---------------------------------------------------------

e--9-10-12-10-9-10-12
b--------------------
g--------------------
d--------------------
a--------------------
e--------------------
that's all






Comments