Siakol - Bakit Ba Chords & Tabs

 

Bakit Ba Chords & Tabs

Siakol Chords & Tabs

Version: 3 Type: Tab 0 ratings
1 star 2 stars 3 stars 4 stars 5 stars
comments

Bakit Ba Tab

   
song title: bakit ba?
song artist: siakol
song instrument : acoustic guitar

intro: G-Em-C-D
       G-Em-C-D
   G                      Bm           
nag aaliw sa usok at beer lang ang kasama
   Em                          Am     D
mas okey pang laging ganto nalilimutan ka
   G                      Bm
hindi ko malaman sayo kung ano ang drama mo
   Em                       Am           D
bakit lagi mo na lang sinasaktan ang puso ko
    G                        Bm
tandang tanda ko pa noong tayo'y namamasyal
  Em                            Am            D                 
napasulyap lang sa iba bigla mo na kong sinampal
    G                       Bm
at sa kaseselos mo nga'y lalong minahal kita 
  Em                    Am      D
subalit nasaan ka na sumama sa iba

chorus: G Em C D
 G    Em           C             D
bakit bakit ba iniwan mong nag iisa 
 G    Em           C             D                
bakit bakit ba sa akin bay nag sawa na
 C          D           C         D           
sinusunod naman kita kahit ano kinakaya
  C               D        
wala pa ring kwenta bakit ba

G-Em-C-D 
G-Em-C-D 
  G                        Bm
ano ba ang nakita mo at pinag palit mo ko
  Em                   Am           D
naka sisiguro ka ba ngayon sa bago mo
  G                       Bm
sana ay mahalin ka nya at wag kang sasaktan
  Em                          Am          D
kahit di na tayo'y problema mo'y sabihin lang
   G                           Bm 
pilit ka mang limutan ay naghihintay parin
   Em                 Am            D
nagbabaka sakali na muli kang dumating
 G                         Bm
bakit ba kay hirap ng kalagayan ko ngayon
   Em                      Am          D
kaya't saking sarili ay laging nagtatanong

repeat chorus:

adlib: G-Em-C-D
       G-Em-C-D-C-D-C-D-C-D-E

e-------------------5---5/7-7--------------------------10-8-7-10-8-7-------
B-------------5-7-8---8-------10-8-10-8-7-8-7---7-8/10---------------------
G-------4-5-7---------------------------------9----------------------------
D---5-7--------------------------------------------------------------------
A--------------------------------------------------------------------------
E--------------------------------------------------------------------------

e-----------------------------------------------10-8-7h8p7---10-8-7--------
B---10-8-10-8-7/8-8-----7-8-10-8-7-------7h8/10------------8--------8/10---
G-------------------7-9------------9-7-9-----------------------------------
D--------------------------------------------------------------------------
A--------------------------------------------------------------------------
E--------------------------------------------------------------------------

e---10-8-7h8p7---10-8-7------10-8-7h8p7---10-8-7---------------12-10-9-10-9-----------------
B--------------8--------8/10------------8--------8/10-10/12-12--------------12-12b14r12-10--
G-------------------------------------------------------------------------------------------
D-------------------------------------------------------------------------------------------
A-------------------------------------------------------------------------------------------
E-------------------------------------------------------------------------------------------

A     F#m        D          E   
bakit bakit ba iniwan mong nag iisa
A      F#m          D           E
bakit bakit ba sa akin bay nag sawa na
 D          E          D        E  
sinusunod naman kita kahit ano kinakaya
 D           E
wala paring kwenta 
       A-F#m-D-E
bakit ba?


guitar 2

1st verse

e---7/10-7h8-7---|--8p7-8p7-8p7---|--7-8-10-8-7---|--8p7-8p7-8p7---
B--------------8-|--------------8-|-------------8-|--------------8-
G----------------|----------------|--7-9-11-9-7---|----------------
D----------------|----------------|-------------9-|----------------
A----------------|----------------|---------------|----------------
E----------------|----------------|---------------|----------------

e---7/10-7h8-7---|--8p7-8p7-8p7---|--7-8-10-8-7---|------10--------
B--------------8-|--------------8-|-------------8-|--7h8-----------
G----------------|----------------|--7-9-11-9-7---|----------------
D----------------|----------------|-------------9-|----------------
A----------------|----------------|---------------|----------------
E----------------|----------------|---------------|----------------

chorus: guitar 2

   G                Em               C                 D
e--7-7-----7-----7--7-7-----7-----7--8-8-----8-----10--10-10-----10-----10----
B--8---8-----8------8---8-----8------8---8-----8--------7----7------7---------
G--7-----7-----7----9-----9-----9----9-----9-----9------7------7------7-------
D--9----------------9---------------10-----------------10---------------------
A-----------------------------------------------------------------------------
E-----------------------------------------------------------------------------
[ Tab from: http://www.guitartabs.cc/tabs/s/siakol/bakit_ba_tab_ver_3.html ]
   G                Em               C                 D
e--7-7-----7-----7--7-7-----7-----7--8-8-----8-----10--10-10-----10-----10----
B--8---8-----8------8---8-----8------8---8-----8--------7----7------7---------
G--7-----7-----7----9-----9-----9----9-----9-----9------7------7------7-------
D--9----------------9---------------10-----------------10---------------------
A-----------------------------------------------------------------------------
E-----------------------------------------------------------------------------
  C                 D
e-8-8-----8-----10--10-10-----10-----10----
B-8---8-----8--------7----7------7---------
G-9-----9-----9------7------7------7-------
D10-----------------10---------------------
A------------------------------------------
E------------------------------------------
  C                 D
e-8-8-----8-----10--10-10-----10-----10----
B-8---8-----8--------7----7------7---------
G-9-----9-----9------7------7------7-------
D10-----------------10---------------------
A------------------------------------------
E------------------------------------------

  C                 D
e-8-8-----8-----10--10-10-----10-----10----
B-8---8-----8--------7----7------7---------
G-9-----9-----9------7------7------7-------
D10-----------------10---------------------
A------------------------------------------
E------------------------------------------

guitar 2

2nd verse


e---7/10-7h8-7---|--8p7-8p7-8p7---|--7-8-10-8-7---|--8p7-----------
B--------------8-|--------------8-|-------------8-|-----8--8/10/12-
G----------------|----------------|--7-9-11-9-7---|------7---------
D----------------|----------------|-------------9-|----------------
A----------------|----------------|---------------|----------------
E----------------|----------------|---------------|----------------

e---7/10-7h8-7---|-7/10-7h8p7-----|--7-8-10-8-7---|------10--------
B--------------8-|------------8---|-------------8-|--7h8-----------
G----------------|--------------7-|--7-9-11-9-7---|----------------
D----------------|----------------|-------------9-|----------------
A----------------|----------------|---------------|----------------
E----------------|----------------|---------------|----------------

   G                Em               C                 D
e--7-7-----7-----7--7-7-----7-----7--8-8-----8-----10--10-10-----10-----10----
B--8---8-----8------8---8-----8------8---8-----8--------7----7------7---------
G--7-----7-----7----9-----9-----9----9-----9-----9------7------7------7-------
D--9----------------9---------------10-----------------10---------------------
A-----------------------------------------------------------------------------
E-----------------------------------------------------------------------------

   G                Em               C                 D
e--7-7-----7-----7--7-7-----7-----7--8-8-----8-----10--10-10-----10-----10----
B--8---8-----8------8---8-----8------8---8-----8--------7----7------7---------
G--7-----7-----7----9-----9-----9----9-----9-----9------7------7------7-------
D--9----------------9---------------10-----------------10---------------------
A-----------------------------------------------------------------------------
E-----------------------------------------------------------------------------
  C                 D
e-8-8-----8-----10--10-10-----10-----10----
B-8---8-----8--------7----7------7---------
G-9-----9-----9------7------7------7-------
D10-----------------10---------------------
A------------------------------------------
E------------------------------------------
  C                 D
e-8-8-----8-----10--10-10-----10-----10----
B-8---8-----8--------7----7------7---------
G-9-----9-----9------7------7------7-------
D10-----------------10---------------------
A------------------------------------------
E------------------------------------------

  C                 D
e-8-8-----8-----10--10-10-----10-----10----
B-8---8-----8--------7----7------7---------
G-9-----9-----9------7------7------7-------
D10-----------------10---------------------
A------------------------------------------
E------------------------------------------

   A                 F#m                   D                                    
e--9-9------9------9--9-9-------9-------9--10-10-------10-------10--12-12-------12------
B-10---10-----10-----10---10------10-------10----10-------10--------12----12-------12---
G--9------9------9---11------11------11----11-------11-------11-----13-------13-------13
D-11-----------------11--------------------12-----------------------14------------------
A---------------------------------------------------------------------------------------
E---------------------------------------------------------------------------------------


-10-10-------10-------10--12-12-------12------
-10----10-------10--------12----12-------12---
-11-------11-------11-----13-------13-------13
-12-----------------------14------------------
----------------------------------------------
----------------------------------------------

-10-10-------10-------10--12-12-------12------
-10----10-------10--------12----12-------12---
-11-------11-------11-----13-------13-------13
-12-----------------------14------------------
----------------------------------------------
----------------------------------------------

-10-10-------10-------10--12-12-------12------
-10----10-------10--------12----12-------12---
-11-------11-------11-----13-------13-------13
-12-----------------------14------------------
----------------------------------------------
----------------------------------------------

A-F#m-D-E
A-F#m-D-E
A

mga tepa
G-320033
Em-022000
C-x32010
D-xx0232
A-x02220
F#m-244222
E-022100

kung kayo'y may mga  katanungan o suggestion 
email nyo lang ako sa Rmagpantay@2100cbi.com
preng jason ito na yung mga chord & tabs ng idol natin!!!!!



Comments