Siakol - Bakit Ba Chords & Tabs

 

Bakit Ba Chords & Tabs

Siakol Chords & Tabs

Version: 2 Type: Tab 0 ratings
1 star 2 stars 3 stars 4 stars 5 stars
comments

Bakit Ba Tab

Title: Bakit ba?
By: Siakol
Tab by: Manuel C. Amoylin, III

For comments email me @ manuel_amoyliniii@yahoo.com!!!


Solo:

e----------------------------------|----------------------------------|
B----------------7-8-10-8-10/12-12-|-12-10-8-10-8-7-8-7---7-8/10-10---|
G------------7-9-------------------|--------------------9-------------|
D-----7-9-10-----------------------|----------------------------------|
A--10------------------------------|----------------------------------|
E----------------------------------|----------------------------------|

[ Tab from: http://www.guitartabs.cc/tabs/s/siakol/bakit_ba_tab_ver_2.html ]
e--10-8-7-10-8-7------------------|-------------------------------|
B----------------10-8-10-8-7h8-8--|-----7-8-10-8-7-------7-8-10---|
G---------------------------------|-7-9------------9-7-9----------|
D---------------------------------|-------------------------------|
A—--------------------------------|-------------------------------|
E---------------------------------|-------------------------------|


e-10-8-7h8p7---10-8-7---------10-8-7h8p7---10-8-7---------10-8-7h8p7---10-8-7---------|
B------------8--------8-8/10-------------8--------8-8/10-------------8--------8-8/10--|
G-------------------------------------------------------------------------------------|
D-------------------------------------------------------------------------------------|
A-------------------------------------------------------------------------------------|
E-------------------------------------------------------------------------------------|


e----------12-10-9-10-9----------------|
B-10/12-12--------------12-12b14—10~~~~|
G--------------------------------------|
D--------------------------------------|
A--------------------------------------|
E--------------------------------------|

Comments