Siakol - Bakit Ba Chords & Tabs

 

Bakit Ba Chords & Tabs

Siakol Chords & Tabs

Version: 13 Type: Tab 0 ratings
1 star 2 stars 3 stars 4 stars 5 stars
comments

Bakit Ba Tab

   
ETO TALAGA ANG GINAWA NG SIAKOL SA ADLIB NG BAKIT BA
KUMUSTA LAHAT NG GUITARISTA NA KAGAYA KO FUCK YOU KAYO MGA NAGPAPANGGAP NA MAGAGALING
THIS IS 100% CORRECT KAHIT ISABAY NIYO PA SA CD
adlib:

   G                   Em                  C                       D
6---------------------------------------------------------------------------|
5---------------------------------------------------------------------------|
4--5--7---------------------------------------------------------------------|
3-------4--5--7-----------------------------------------------------7--9--7-|
2----------------5--7--8--10--8--10s12--12------12--10--8--10--8--7---------|
1---------------------------------------------------------------------------|
[ Tab from: http://www.guitartabs.cc/tabs/s/siakol/bakit_ba_tab_ver_13.html ]
           G                        Em       C              D
6----------------------------------------------------------------------------|
5----------------------------------------------------------------------------|
4----------------------------------------------------------------------------|
3----------------------------------9-------9--7----------------9--7--9-------|
2-7--8--10-------------------9--7---7s8-8-----7--8--10--8--7---------7--8--9-|
1-----------10--8--7--10--8--7-----------------------------------------------|

    C                D                 C             D
6---------------------------------------------------------------------|
5---------------------------------------------------------------------|
4---------------------------------------------------------------------|
3---------------------------------------------------------------------|
2----------------8-----------8--8s10--------------8----------8--8s10--|
1----10--8--7--8----10--8--7----------10--8--7--8---10--8--7----------|

  C         D                   E                                    A
6--------------------------------------------------------------------------|
5--------------------------------------------------------------------------|
4--------------------------------------------------------------------------|
3--------------------------------------------------------------------------|
2---------8---------8--8s10-10s12--12--12------------------10-12b-12b-10---|
1-10-8-7-8---10-8-7-----------------------12-10-9-10-9---------------------|
TAB BY: PAULO
Comments