Siakol - Bakit Ba Chords & Tabs

 

Bakit Ba Chords & Tabs

Siakol Chords & Tabs

Version: 10 Type: Tab 0 ratings
1 star 2 stars 3 stars 4 stars 5 stars
comments

Bakit Ba Tab

   
eto ung part ng lead sa chorus...ulit-ulitin nyo lng...ndi ko masasabing 100% eto...
pero pwedeng pwede na..

Hello sa F13 ng IV - Newton sa Partido State University Lab. H/S, Goa Camarines Sur...
HI din kay MCV!!!... she's d' BEST!!!
[ Tab from: http://www.guitartabs.cc/tabs/s/siakol/bakit_ba_tab_ver_10.html ]
                                 Em
e:------7--------8-7---------*-----7-------7---------------|
B:---------8----------8------*--------8-------8-----8------|
G:----7-------7----------7---*---9-------9-------9---------|
D:---------------------------*-----------------------------|
A:---------------------------*-----------------------------|
E:---------------------------*-----------------------------|
      C                          D
e:------3--------5-3---------*-----5-------7-5-------------|
B:---------5----------5------*--------7---------7----------|
G:----5-------5----------5---*---7-------7---------7-------|
D:---------------------------*-----------------------------|
A:---------------------------*-----------------------------|
E:---------------------------*-----------------------------|

ASTIIIG!!!!!!!!
Comments