Siakol - Bakit Ba Chords & Tabs

 

Bakit Ba Chords & Tabs

Siakol Chords & Tabs

Version: 1 Type: Chords 0 ratings
1 star 2 stars 3 stars 4 stars 5 stars
comments

Bakit Ba Chords

   
artist: siakol
song: bakit ba
Tabbed by: rommel aribon


  oh!!!mga tol eto ang tamatamang tipa sa bakit ba!!!! medyo mali kasi
yung sa iba!!!! medyo mataas tingnan nyo nalang to!!!!!!!

Intro: G Em C D 2x

Verse:G Bm Em Am D

  G Bm                      Em Am D

--------9h10---7h8--7----------------8p7--8p7--8p7-------------------
------------------------8-----------------------------8--------------
---------------------------------------------------------------------
---------------------------------------------------------------------
---------------------------------------------------------------------
---------------------------------------------------------------------

G Bm                       Em Am D


-----7--8--10--8--7------------------8p7-----------------------------
----------------------8--------------------8-----8/10---12-----------
-----7--7--7---7--7---------------------------7----------------------
---------------------------------------------------------------------
---------------------------------------------------------------------
---------------------------------------------------------------------

G Bm                      Em Am D

-------9h10--7p8---7---------------8p7--8p7--8h7----------------------
-----------------------8---------------------------8------------------
----------------------------------------------------------------------
----------------------------------------------------------------------
----------------------------------------------------------------------
----------------------------------------------------------------------
[ Tab from: http://www.guitartabs.cc/tabs/s/siakol/bakit_ba_crd.html ]
 G Bm                           Em Am D

-------7--8--10--8--7-----------------------10------------------------
-------------------------8-------------7/8----------------------------
-------7--7--7---7--7-------------------------------------------------
----------------------------------------------------------------------
----------------------------------------------------------------------
----------------------------------------------------------------------

Koro


--7--------8--7-------7-------7--------3-------5-3--------------------
-----8----------8--------8-------8--------5--------5-----------------
--------9---------79--------9--------9-------5---------5--------------
----------------------------------------------------------------------
----------------------------------------------------------------------
----------------------------------------------------------------------


--5--------7--5----------7---------8-7----------7---------------------
-----7-----------7-----------8----------8-----------8-----------------
--------7-----------7-----------7----------7-9----------9-------------
----------------------------------------------------------------------
----------------------------------------------------------------------
----------------------------------------------------------------------

4 x

---3-----------5--3----------5----------75----------------------------
--------5-------------5----------7-----------7------------------------
------------5------------5-----------7----------7---------------------
----------------------------------------------------------------------
----------------------------------------------------------------------
----------------------------------------------------------------------


okey be mga f4?????????????????????





Comments