Shy Nobleman - Girlfriend Chords & Tabs

 

Girlfriend Chords & Tabs

Shy Nobleman Chords & Tabs

Version: 1 Type: Tab

Girlfriend Tab

   
girlfriend/shy nobleman


veres:
"I have a girlfriend..."

(00:02)
   B5  F#5  E5    E#5 F#5 B5 * B5  F#5  E5     E
e[---------------------------*-----------------------------------|
B[---------------------------*----------------------11----10---9-|
G[--4---------------------4--*--4--------------7/9-----8-----7---|
D[--4---4---2-----2---4---4--*--4---4---2------------------------|
A[--2---4---2-----2---4---2--*--2---4---2------------------------|
E[------2---0-----0---2------*------2---0------------------------|
"yeh yeh yeh...."            *


(00:14)
/C#M/E/C#M/G#M7/F#/
"it's all I could ask for..."
[ Tab from: http://www.guitartabs.cc/tabs/s/shy_nobleman/girlfriend_tab.html ]
chorus1:
(00:47)
/ B / E / B / E /
/ B / E /C#M/ F# /
"I have a girlfriend..."

bridge:
(01:03)
    D5   C#5  C5   B5
e[---------------------|
B[---------------------|
G[---------------------|
D[--7-7--6-6--5-5--4~--|
A[--5-5--4-4--3-3--2~--|
E[---------------------|

chorus2:
/ C / F / C / F /
/ C / F / C / F /
/ C / F / C / F /
"I had a girlfriend..."

SOLO:
(02:29)
e[------------------******----------------------|
B[------------------*----*----------------------|
G[--0-5/12-10-9-7-5-*----*-0-5/12-10b~------5---|
D[------------------*-*3-*------------------5---|
A[------------------*----*------------------3---|
E[------------------******----------------------|end.

     index

veres*2
chorus*1
bridge*1
veres*1
chorus*1
bridge*1
chorus*2
solo(with chorus2)


        Happy Pickin's!
	maor blumenthal