Shutdown - Few And Far Between Chords & Tabs

 

Few And Far Between Chords & Tabs

Shutdown Chords & Tabs

Version: 1 Type: Tab 0 ratings
1 star 2 stars 3 stars 4 stars 5 stars
comments

Few And Far Between Tab

                           Artist: Shutdown
                      Title: Few and Far Between


Tabbed by: Ryan Sandor
BladePhantom74@hotmail.com
Any questions or comments, email me.
                        

 DROPPED D TUNING
  
  /-slide up
  \-slide down
  P-Pull Off
  H-Hammer on
  P.M.-Palm Mute
 
  Throughout the whole song I didnt put the exact
  amount of times you need to strum so you figure
  out how many times.(including palm mutes)

--------------------------------------------
--------------------------------------------
--------------------------------------------
5-5-5/8-8-8--7-7-7---3-3-3/6-6-6--5-5-5----- Repeat 3 times
5-5-5/8-8-8--7-7-7---3-3-3/6-6-6--5-5-5-----
5-5-5/8-8-8--7-7-7---3-3-3/6-6-6--5-5-5-----


--------------------------------------------
--------------------------------------------
--------------------------------------------
5-5-3-0-------------------------------------
5-5-3-0-------------------------------------
5-5-3-0-0-0-0-0-0-0-0-0-0-0-0-0-0-0-0-0-0-0-
        P.M.~~~~~~~~~~~~~~~~~~~~~~~~~~~~~~~

-------------------------------------------------------
------------------------------------------------------
------------------------------------------------------
-3-3-3--5-5-5p4p3-0----------------------------------- Repeat 2 times
-3-3-3--5-5-5p4p3-0-----------------------------------
-3-3-3--5-5-5p4p3-0-0-0-0-0-0-0-0-0-0-0-0-0-0-0-0-0-0-
            P.M.~~~~~~~~~~~~~~~~~~~~~~~~~~~~~

-------------------------------------------------------------------
-------------------------------------------------------------------
-------------------------------------------------------------------
3-3-3---5-5---5-4-3---5-5-5---5-4-3---5-5-5---5-4-3---8-8-8---3-3-3
3-3-3---5-5---5-4-3---5-5-5---5-4-3---5-5-5---5-4-3---8-8-8---3-3-3
3-3-3---5-5---5-4-3---5-5-5---5-4-3---5-5-5---5-4-3---8-8-8---3-3-3


-------------------------------------------------------
-------------------------------------------------------
-------------------------------------------------------
5-4-3---5-5-5---5-4-3---5-5-5---5-4-3---8-8-8---3-3-3-- Repeat 2 Times
5-4-3---5-5-5---5-4-3---5-5-5---5-4-3---8-8-8---3-3-3--
5-4-3---5-5-5---5-4-3---5-5-5---5-4-3---8-8-8---3-3-3--
 
[ Tab from: http://www.guitartabs.cc/tabs/s/shutdown/few_and_far_between_tab.html ]
-------------------------------------------------------
-------------------------------------------------------
-------------------------------------------------------
5-4-3--5-5-5/8-8-8--7-7-7---3-3-3--6-6-6--5-5-5-- 
5-4-3--5-5-5/8-8-8--7-7-7---3-3-3--6-6-6--5-5-5-- 
5-4-3--5-5-5/8-8-8--7-7-7---3-3-3--6-6-6--5-5-5-- 


------------------------------------------
------------------------------------------
------------------------------------------
5-5-5/8-8-8--7-7-7---3-3-3--6-6-6--5-5-5-- Repeat 3 Times
5-5-5/8-8-8--7-7-7---3-3-3--6-6-6--5-5-5--
5-5-5/8-8-8--7-7-7---3-3-3--6-6-6--5-5-5--


-------------------------------------------------------
-------------------------------------------------------
-------------------------------------------------------
5-4-3---5-5-5---5-4-3---5-5-5---5-4-3---8-8-8---3-3-3-- Repeat 3 Times
5-4-3---5-5-5---5-4-3---5-5-5---5-4-3---8-8-8---3-3-3--
5-4-3---5-5-5---5-4-3---5-5-5---5-4-3---8-8-8---3-3-3--


-------------------------------------------------------
-------------------------------------------------------
-------------------------------------------------------
-2-1-0-0-0---2-1-0-0-0--2-1-0-0-0----------------------
-2-1-0-0-0---2-1-0-0-0--2-1-0-0-0----------------------
-2-1-0-0-0---2-1-0-0-0--2-1-0-0-0----------------------
                                (let last chord ring)

------------------------------------------------------------------
------------------------------------------------------------------
---------------7-8-7-7-7--10-10-10---------------7-8-7-7-7--------
---------------7-8-7-7-7--10-10-10---------------7-8-7-7-7--6-6-6-
---------------5-6-5-5-5--8--8--8----------------5-6-5-5-5--6-6-6-
-0-0-0-0-0-0-0---------------------0-0-0-0-0-0-0------------6-6-6-
 P.M.~~~~~~~~~                     P.M.~~~~~~~~~


-------------------------------------------------------
-------------------------------------------------------
-------7-8-7-7-7--10-10-10-------7-8-7-7-7-------------
-------7-8-7-7-7--10-10-10-------7-8-7-7-7------------- Repeat 9 Times
-------5-6-5-5-5--8--8--8--------5-6-5-5-5-------------
-0-0-0---------------------0-0-0-----------0-0-0--0-0-0
 P.M.~                     P.M.~           P.M.~~~~~~~~

------------------------------------
------------------------------------
------------------------------------
----------------------------0------- The End
----------------------------0-------
-0-0-0--0-0-0--0-0-0--0-0-0-0-------
 P.M.~~~~~~~~~~~~~~~~~~~~~~(Let Ring to Finish)
Comments